  0
SECTION
  2
HEADER
  9
$ACADVER
  1
AC1009
  9
$FILLMODE
 70
0
  9
$EXTMIN
 10
-71.5500
 20
-159.4160
 30
0.0000
  9
$EXTMAX
 10
137.2400
 20
252.9167
 30
0.0000
  0
ENDSEC
  0
SECTION
  2
TABLES
  0
TABLE
  2
LTYPE
 70
1
  0
LTYPE
  2
CONTINUOUS
 70
64
  3
Solid line
 72
65
 73
0
 40
0
  0
ENDTAB
  0
TABLE
  2
LAYER
 70
255
  0
LAYER
  2
133
 70
64
 62
178
  6
CONTINUOUS
  0
ENDTAB
  0
ENDSEC
  0
SECTION
  2
BLOCKS
  0
BLOCK
  8
0
  2
RECT
 70
64
 10
0.0000
 20
0.0000
 30
0.0000
  3
RECT
  0
SOLID
  8
0
 10
-0.5000
 20
-0.5000
 30
0.0000
 11
0.5000
 21
-0.5000
 31
0.0000
 12
-0.5000
 22
0.5000
 32
0.0000
 13
0.5000
 23
0.5000
 33
0.0000
  0
ENDBLK
  8
0
  0
BLOCK
  8
0
  2
PIE
 70
64
 10
0.0000
 20
0.0000
 30
0.0000
  3
PIE
  0
CIRCLE
  8
0
 10
0.0000
 20
0.0000
 30
0.0000
 40
0.5000
  0
ENDBLK
  8
0
  0
BLOCK
  8
0
  2
OCTAGONP
 70
64
 10
0.0000
 20
0.0000
 30
0.0000
  3
OCTAGONP
  0
POLYLINE
  8
0
 66
1
 10
0.0000
 20
0.0000
 30
0.0000
 40
0.0000
 41
0.0000
 70
1
  0
VERTEX
  8
0
 10
-0.5000
 20
-0.2071
 30
0.0000
  0
VERTEX
  8
0
 10
-0.5000
 20
0.2071
 30
0.0000
  0
VERTEX
  8
0
 10
-0.2071
 20
0.5000
 30
0.0000
  0
VERTEX
  8
0
 10
0.2071
 20
0.5000
 30
0.0000
  0
VERTEX
  8
0
 10
0.5000
 20
0.2071
 30
0.0000
  0
VERTEX
  8
0
 10
0.5000
 20
-0.2071
 30
0.0000
  0
VERTEX
  8
0
 10
0.2071
 20
-0.5000
 30
0.0000
  0
VERTEX
  8
0
 10
-0.2071
 20
-0.5000
 30
0.0000
  0
SEQEND
  8
0
  0
ENDBLK
  8
0
  0
BLOCK
  8
0
  2
SQUAREP
 70
64
 10
0.0000
 20
0.0000
 30
0.0000
  3
SQUAREP
  0
SOLID
  8
0
 10
-0.5000
 20
-0.5000
 30
0.0000
 11
0.5000
 21
-0.5000
 31
0.0000
 12
-0.5000
 22
0.5000
 32
0.0000
 13
0.5000
 23
0.5000
 33
0.0000
  0
ENDBLK
  8
0
  0
BLOCK
  8
0
  2
ROUNDP
 70
64
 10
0.0000
 20
0.0000
 30
0.0000
  3
ROUNDP
  0
CIRCLE
  8
0
 10
0.0000
 20
0.0000
 30
0.0000
 40
0.5000
  0
ENDBLK
  8
0
  0
BLOCK
  8
0
  2
ANNULUSP
 70
64
 10
0.0000
 20
0.0000
 30
0.0000
  3
ANNULUSP
  0
CIRCLE
  8
0
 10
0.0000
 20
0.0000
 30
0.0000
 40
0.5000
  0
ENDBLK
  8
0
  0
BLOCK
  8
0
  2
THERMALP
 70
64
 10
0.0000
 20
0.0000
 30
0.0000
  3
THERMALP
  0
LINE
  8
0
 10
-0.2379
 20
0.4500
 30
0.0000
 11
0.2379
 21
0.4500
 31
0.0000
  0
LINE
  8
0
 10
0.4500
 20
0.2379
 30
0.0000
 11
0.4500
 21
-0.2379
 31
0.0000
  0
LINE
  8
0
 10
0.2379
 20
-0.4500
 30
0.0000
 11
-0.2379
 21
-0.4500
 31
0.0000
  0
LINE
  8
0
 10
-0.4500
 20
-0.2379
 30
0.0000
 11
-0.4500
 21
0.2379
 31
0.0000
  0
ENDBLK
  8
0
  0
BLOCK
  8
0
  2
OCTAGONV
 70
64
 10
0.0000
 20
0.0000
 30
0.0000
  3
OCTAGONV
  0
POLYLINE
  8
0
 66
1
 10
0.0000
 20
0.0000
 30
0.0000
 40
0.0000
 41
0.0000
 70
1
  0
VERTEX
  8
0
 10
-0.5000
 20
-0.2071
 30
0.0000
  0
VERTEX
  8
0
 10
-0.5000
 20
0.2071
 30
0.0000
  0
VERTEX
  8
0
 10
-0.2071
 20
0.5000
 30
0.0000
  0
VERTEX
  8
0
 10
0.2071
 20
0.5000
 30
0.0000
  0
VERTEX
  8
0
 10
0.5000
 20
0.2071
 30
0.0000
  0
VERTEX
  8
0
 10
0.5000
 20
-0.2071
 30
0.0000
  0
VERTEX
  8
0
 10
0.2071
 20
-0.5000
 30
0.0000
  0
VERTEX
  8
0
 10
-0.2071
 20
-0.5000
 30
0.0000
  0
SEQEND
  8
0
  0
ENDBLK
  8
0
  0
BLOCK
  8
0
  2
SQUAREV
 70
64
 10
0.0000
 20
0.0000
 30
0.0000
  3
SQUAREV
  0
SOLID
  8
0
 10
-0.5000
 20
-0.5000
 30
0.0000
 11
0.5000
 21
-0.5000
 31
0.0000
 12
-0.5000
 22
0.5000
 32
0.0000
 13
0.5000
 23
0.5000
 33
0.0000
  0
ENDBLK
  8
0
  0
BLOCK
  8
0
  2
ROUNDV
 70
64
 10
0.0000
 20
0.0000
 30
0.0000
  3
ROUNDV
  0
CIRCLE
  8
0
 10
0.0000
 20
0.0000
 30
0.0000
 40
0.5000
  0
ENDBLK
  8
0
  0
BLOCK
  8
0
  2
ANNULUSV
 70
64
 10
0.0000
 20
0.0000
 30
0.0000
  3
ANNULUSV
  0
CIRCLE
  8
0
 10
0.0000
 20
0.0000
 30
0.0000
 40
0.5000
  0
ENDBLK
  8
0
  0
BLOCK
  8
0
  2
THERMALV
 70
64
 10
0.0000
 20
0.0000
 30
0.0000
  3
THERMALV
  0
LINE
  8
0
 10
-0.2379
 20
0.4500
 30
0.0000
 11
0.2379
 21
0.4500
 31
0.0000
  0
LINE
  8
0
 10
0.4500
 20
0.2379
 30
0.0000
 11
0.4500
 21
-0.2379
 31
0.0000
  0
LINE
  8
0
 10
0.2379
 20
-0.4500
 30
0.0000
 11
-0.2379
 21
-0.4500
 31
0.0000
  0
LINE
  8
0
 10
-0.4500
 20
-0.2379
 30
0.0000
 11
-0.4500
 21
0.2379
 31
0.0000
  0
ENDBLK
  8
0
  0
ENDSEC
  0
SECTION
  2
ENTITIES
  0
LINE
  8
133
 10
-36.0500
 20
-9.8500
 30
0.0000
 11
-36.0500
 21
50.1500
 31
0.0000
  0
LINE
  8
133
 10
-36.0500
 20
50.1500
 30
0.0000
 11
73.9500
 21
50.1500
 31
0.0000
  0
LINE
  8
133
 10
73.9500
 20
50.1500
 30
0.0000
 11
73.9500
 21
-9.8500
 31
0.0000
  0
LINE
  8
133
 10
73.9500
 20
-9.8500
 30
0.0000
 11
-36.0500
 21
-9.8500
 31
0.0000
  0
ARC
  8
133
 10
4.6500
 20
29.2000
 30
0.0000
 40
1.0000
 50
0.0000
 51
90.0000
  0
LINE
  8
133
 10
5.6500
 20
29.2000
 30
0.0000
 11
5.6500
 21
24.4500
 31
0.0000
  0
ARC
  8
133
 10
6.0000
 20
24.4500
 30
0.0000
 40
0.3500
 50
180.0000
 51
270.0000
  0
ARC
  8
133
 10
6.0000
 20
23.2000
 30
0.0000
 40
0.9000
 50
0.0000
 51
90.0000
  0
LINE
  8
133
 10
6.9000
 20
23.2000
 30
0.0000
 11
6.9000
 21
21.1000
 31
0.0000
  0
ARC
  8
133
 10
5.9000
 20
21.1000
 30
0.0000
 40
1.0000
 50
270.0000
 51
0.0000
  0
LINE
  8
133
 10
5.9000
 20
20.1000
 30
0.0000
 11
4.0000
 21
20.1000
 31
0.0000
  0
ARC
  8
133
 10
4.0000
 20
21.1000
 30
0.0000
 40
1.0000
 50
180.0000
 51
270.0000
  0
LINE
  8
133
 10
3.0000
 20
21.1000
 30
0.0000
 11
3.0000
 21
23.5500
 31
0.0000
  0
ARC
  8
133
 10
3.5000
 20
23.5500
 30
0.0000
 40
0.5000
 50
90.0000
 51
180.0000
  0
ARC
  8
133
 10
3.5000
 20
24.2000
 30
0.0000
 40
0.1500
 50
270.0000
 51
0.0000
  0
LINE
  8
133
 10
3.6500
 20
24.2000
 30
0.0000
 11
3.6500
 21
29.2000
 31
0.0000
  0
ARC
  8
133
 10
4.6500
 20
29.2000
 30
0.0000
 40
1.0000
 50
90.0000
 51
180.0000
  0
LINE
  8
133
 10
6.9000
 20
14.5500
 30
0.0000
 11
6.9000
 21
16.8000
 31
0.0000
  0
ARC
  8
133
 10
4.6000
 20
16.8000
 30
0.0000
 40
2.3000
 50
0.0000
 51
90.0000
  0
ARC
  8
133
 10
4.6000
 20
17.5000
 30
0.0000
 40
1.6000
 50
90.0000
 51
180.0000
  0
LINE
  8
133
 10
3.0000
 20
17.5000
 30
0.0000
 11
3.0000
 21
13.8500
 31
0.0000
  0
ARC
  8
133
 10
4.3000
 20
13.8500
 30
0.0000
 40
1.3000
 50
180.0000
 51
270.0000
  0
LINE
  8
133
 10
4.3000
 20
12.5500
 30
0.0000
 11
6.7500
 21
12.5500
 31
0.0000
  0
ARC
  8
133
 10
6.7500
 20
13.5500
 30
0.0000
 40
1.0000
 50
270.0000
 51
0.0000
  0
LINE
  8
133
 10
7.7500
 20
13.5500
 30
0.0000
 11
7.7500
 21
13.7000
 31
0.0000
  0
ARC
  8
133
 10
6.9000
 20
13.7000
 30
0.0000
 40
0.8500
 50
0.0000
 51
90.0000
  0
ARC
  8
133
 10
15.7500
 20
29.0000
 30
0.0000
 40
1.9500
 50
0.0000
 51
90.0000
  0
LINE
  8
133
 10
15.7500
 20
30.9500
 30
0.0000
 11
12.3500
 21
30.9500
 31
0.0000
  0
ARC
  8
133
 10
12.3500
 20
30.0000
 30
0.0000
 40
0.9500
 50
90.0000
 51
180.0000
  0
LINE
  8
133
 10
11.4000
 20
30.0000
 30
0.0000
 11
11.4000
 21
29.1500
 31
0.0000
  0
ARC
  8
133
 10
13.3500
 20
29.1500
 30
0.0000
 40
1.9500
 50
180.0000
 51
270.0000
  0
LINE
  8
133
 10
13.3500
 20
27.2000
 30
0.0000
 11
16.7500
 21
27.2000
 31
0.0000
  0
ARC
  8
133
 10
16.7500
 20
28.1500
 30
0.0000
 40
0.9500
 50
270.0000
 51
0.0000
  0
LINE
  8
133
 10
17.7000
 20
28.1500
 30
0.0000
 11
17.7000
 21
29.0000
 31
0.0000
  0
LINE
  8
133
 10
6.9000
 20
34.9500
 30
0.0000
 11
6.9000
 21
37.2500
 31
0.0000
  0
ARC
  8
133
 10
4.6500
 20
37.2500
 30
0.0000
 40
2.2500
 50
0.0000
 51
90.0000
  0
ARC
  8
133
 10
4.6500
 20
37.8500
 30
0.0000
 40
1.6500
 50
90.0000
 51
180.0000
  0
LINE
  8
133
 10
3.0000
 20
37.8500
 30
0.0000
 11
3.0000
 21
34.2500
 31
0.0000
  0
ARC
  8
133
 10
4.3000
 20
34.2500
 30
0.0000
 40
1.3000
 50
180.0000
 51
270.0000
  0
LINE
  8
133
 10
4.3000
 20
32.9500
 30
0.0000
 11
6.7500
 21
32.9500
 31
0.0000
  0
ARC
  8
133
 10
6.7500
 20
33.9500
 30
0.0000
 40
1.0000
 50
270.0000
 51
0.0000
  0
LINE
  8
133
 10
7.7500
 20
33.9500
 30
0.0000
 11
7.7500
 21
34.1000
 31
0.0000
  0
ARC
  8
133
 10
6.9000
 20
34.1000
 30
0.0000
 40
0.8500
 50
0.0000
 51
90.0000
  0
ARC
  8
133
 10
4.6500
 20
8.7500
 30
0.0000
 40
1.0000
 50
90.0000
 51
180.0000
  0
LINE
  8
133
 10
3.6500
 20
8.7500
 30
0.0000
 11
3.6500
 21
3.7500
 31
0.0000
  0
ARC
  8
133
 10
3.5000
 20
3.7500
 30
0.0000
 40
0.1500
 50
270.0000
 51
0.0000
  0
ARC
  8
133
 10
3.5000
 20
3.1000
 30
0.0000
 40
0.5000
 50
90.0000
 51
180.0000
  0
LINE
  8
133
 10
3.0000
 20
3.1000
 30
0.0000
 11
3.0000
 21
0.6500
 31
0.0000
  0
ARC
  8
133
 10
4.0000
 20
0.6500
 30
0.0000
 40
1.0000
 50
180.0000
 51
270.0000
  0
LINE
  8
133
 10
4.0000
 20
-0.3500
 30
0.0000
 11
5.9500
 21
-0.3500
 31
0.0000
  0
ARC
  8
133
 10
5.9500
 20
0.6000
 30
0.0000
 40
0.9500
 50
270.0000
 51
0.0000
  0
LINE
  8
133
 10
6.9000
 20
0.6000
 30
0.0000
 11
6.9000
 21
2.7500
 31
0.0000
  0
ARC
  8
133
 10
6.0000
 20
2.7500
 30
0.0000
 40
0.9000
 50
0.0000
 51
90.0000
  0
ARC
  8
133
 10
6.0000
 20
4.0000
 30
0.0000
 40
0.3500
 50
180.0000
 51
270.0000
  0
LINE
  8
133
 10
5.6500
 20
4.0000
 30
0.0000
 11
5.6500
 21
8.7500
 31
0.0000
  0
ARC
  8
133
 10
4.6500
 20
8.7500
 30
0.0000
 40
1.0000
 50
0.0000
 51
90.0000
  0
LINE
  8
133
 10
31.0000
 20
5.3500
 30
0.0000
 11
31.0000
 21
3.0500
 31
0.0000
  0
ARC
  8
133
 10
33.2500
 20
3.0500
 30
0.0000
 40
2.2500
 50
180.0000
 51
270.0000
  0
ARC
  8
133
 10
33.2500
 20
2.4500
 30
0.0000
 40
1.6500
 50
270.0000
 51
0.0000
  0
LINE
  8
133
 10
34.9000
 20
2.4500
 30
0.0000
 11
34.9000
 21
6.0500
 31
0.0000
  0
ARC
  8
133
 10
33.6000
 20
6.0500
 30
0.0000
 40
1.3000
 50
0.0000
 51
90.0000
  0
LINE
  8
133
 10
33.6000
 20
7.3500
 30
0.0000
 11
31.1500
 21
7.3500
 31
0.0000
  0
ARC
  8
133
 10
31.1500
 20
6.3500
 30
0.0000
 40
1.0000
 50
90.0000
 51
180.0000
  0
LINE
  8
133
 10
30.1500
 20
6.3500
 30
0.0000
 11
30.1500
 21
6.2000
 31
0.0000
  0
ARC
  8
133
 10
31.0000
 20
6.2000
 30
0.0000
 40
0.8500
 50
180.0000
 51
270.0000
  0
ARC
  8
133
 10
32.0000
 20
19.2500
 30
0.0000
 40
1.0000
 50
90.0000
 51
180.0000
  0
LINE
  8
133
 10
31.0000
 20
19.2500
 30
0.0000
 11
31.0000
 21
17.1500
 31
0.0000
  0
ARC
  8
133
 10
31.9000
 20
17.1500
 30
0.0000
 40
0.9000
 50
180.0000
 51
270.0000
  0
ARC
  8
133
 10
31.9000
 20
15.9000
 30
0.0000
 40
0.3500
 50
0.0000
 51
90.0000
  0
LINE
  8
133
 10
32.2500
 20
15.9000
 30
0.0000
 11
32.2500
 21
11.1500
 31
0.0000
  0
ARC
  8
133
 10
33.2500
 20
11.1500
 30
0.0000
 40
1.0000
 50
180.0000
 51
270.0000
  0
ARC
  8
133
 10
33.2500
 20
11.1500
 30
0.0000
 40
1.0000
 50
270.0000
 51
0.0000
  0
LINE
  8
133
 10
34.2500
 20
11.1500
 30
0.0000
 11
34.2500
 21
16.1500
 31
0.0000
  0
ARC
  8
133
 10
34.4000
 20
16.1500
 30
0.0000
 40
0.1500
 50
90.0000
 51
180.0000
  0
ARC
  8
133
 10
34.4000
 20
16.8000
 30
0.0000
 40
0.5000
 50
270.0000
 51
0.0000
  0
LINE
  8
133
 10
34.9000
 20
16.8000
 30
0.0000
 11
34.9000
 21
19.2500
 31
0.0000
  0
ARC
  8
133
 10
33.9000
 20
19.2500
 30
0.0000
 40
1.0000
 50
0.0000
 51
90.0000
  0
LINE
  8
133
 10
33.9000
 20
20.2500
 30
0.0000
 11
32.0000
 21
20.2500
 31
0.0000
  0
LINE
  8
133
 10
31.0500
 20
25.7000
 30
0.0000
 11
31.0500
 21
23.4000
 31
0.0000
  0
ARC
  8
133
 10
33.3000
 20
23.4000
 30
0.0000
 40
2.2500
 50
180.0000
 51
270.0000
  0
ARC
  8
133
 10
33.3000
 20
22.8000
 30
0.0000
 40
1.6500
 50
270.0000
 51
0.0000
  0
LINE
  8
133
 10
34.9500
 20
22.8000
 30
0.0000
 11
34.9500
 21
26.4000
 31
0.0000
  0
ARC
  8
133
 10
33.6500
 20
26.4000
 30
0.0000
 40
1.3000
 50
0.0000
 51
90.0000
  0
LINE
  8
133
 10
33.6500
 20
27.7000
 30
0.0000
 11
31.2000
 21
27.7000
 31
0.0000
  0
ARC
  8
133
 10
31.2000
 20
26.7000
 30
0.0000
 40
1.0000
 50
90.0000
 51
180.0000
  0
LINE
  8
133
 10
30.2000
 20
26.7000
 30
0.0000
 11
30.2000
 21
26.5500
 31
0.0000
  0
ARC
  8
133
 10
31.0500
 20
26.5500
 30
0.0000
 40
0.8500
 50
180.0000
 51
270.0000
  0
ARC
  8
133
 10
33.2000
 20
31.5000
 30
0.0000
 40
1.0000
 50
270.0000
 51
0.0000
  0
LINE
  8
133
 10
34.2000
 20
31.5000
 30
0.0000
 11
34.2000
 21
36.5000
 31
0.0000
  0
ARC
  8
133
 10
34.3500
 20
36.5000
 30
0.0000
 40
0.1500
 50
90.0000
 51
180.0000
  0
ARC
  8
133
 10
34.3500
 20
37.1500
 30
0.0000
 40
0.5000
 50
270.0000
 51
0.0000
  0
LINE
  8
133
 10
34.8500
 20
37.1500
 30
0.0000
 11
34.8500
 21
39.6000
 31
0.0000
  0
ARC
  8
133
 10
33.8500
 20
39.6000
 30
0.0000
 40
1.0000
 50
0.0000
 51
90.0000
  0
LINE
  8
133
 10
33.8500
 20
40.6000
 30
0.0000
 11
31.9500
 21
40.6000
 31
0.0000
  0
ARC
  8
133
 10
31.9500
 20
39.6000
 30
0.0000
 40
1.0000
 50
90.0000
 51
180.0000
  0
LINE
  8
133
 10
30.9500
 20
39.6000
 30
0.0000
 11
30.9500
 21
37.5000
 31
0.0000
  0
ARC
  8
133
 10
31.8500
 20
37.5000
 30
0.0000
 40
0.9000
 50
180.0000
 51
270.0000
  0
ARC
  8
133
 10
31.8500
 20
36.2500
 30
0.0000
 40
0.3500
 50
0.0000
 51
90.0000
  0
LINE
  8
133
 10
32.2000
 20
36.2500
 30
0.0000
 11
32.2000
 21
31.5000
 31
0.0000
  0
ARC
  8
133
 10
33.2000
 20
31.5000
 30
0.0000
 40
1.0000
 50
180.0000
 51
270.0000
  0
ARC
  8
133
 10
27.0000
 20
35.8500
 30
0.0000
 40
1.0000
 50
270.0000
 51
0.0000
  0
LINE
  8
133
 10
28.0000
 20
35.8500
 30
0.0000
 11
28.0000
 21
38.3500
 31
0.0000
  0
ARC
  8
133
 10
26.8000
 20
38.3500
 30
0.0000
 40
1.2000
 50
0.0000
 51
90.0000
  0
LINE
  8
133
 10
26.8000
 20
39.5500
 30
0.0000
 11
24.5500
 21
39.5500
 31
0.0000
  0
ARC
  8
133
 10
24.5500
 20
38.5500
 30
0.0000
 40
1.0000
 50
90.0000
 51
180.0000
  0
ARC
  8
133
 10
24.5500
 20
38.5500
 30
0.0000
 40
1.0000
 50
180.0000
 51
270.0000
  0
LINE
  8
133
 10
24.5500
 20
37.5500
 30
0.0000
 11
25.1000
 21
37.5500
 31
0.0000
  0
ARC
  8
133
 10
25.1000
 20
36.6500
 30
0.0000
 40
0.9000
 50
0.0000
 51
90.0000
  0
LINE
  8
133
 10
26.0000
 20
36.6500
 30
0.0000
 11
26.0000
 21
35.8500
 31
0.0000
  0
ARC
  8
133
 10
27.0000
 20
35.8500
 30
0.0000
 40
1.0000
 50
180.0000
 51
270.0000
  0
ARC
  8
133
 10
11.7000
 20
36.0000
 30
0.0000
 40
2.4500
 50
180.0000
 51
270.0000
  0
LINE
  8
133
 10
11.7000
 20
33.5500
 30
0.0000
 11
13.0000
 21
33.5500
 31
0.0000
  0
ARC
  8
133
 10
13.0000
 20
34.4000
 30
0.0000
 40
0.8500
 50
270.0000
 51
0.0000
  0
ARC
  8
133
 10
14.5500
 20
34.4000
 30
0.0000
 40
0.7000
 50
90.0000
 51
180.0000
  0
LINE
  8
133
 10
14.5500
 20
35.1000
 30
0.0000
 11
15.4000
 21
35.1000
 31
0.0000
  0
ARC
  8
133
 10
15.4000
 20
37.1000
 30
0.0000
 40
2.0000
 50
270.0000
 51
0.0000
  0
LINE
  8
133
 10
17.4000
 20
37.1000
 30
0.0000
 11
17.4000
 21
37.1500
 31
0.0000
  0
ARC
  8
133
 10
15.4500
 20
37.1500
 30
0.0000
 40
1.9500
 50
0.0000
 51
90.0000
  0
LINE
  8
133
 10
15.4500
 20
39.1000
 30
0.0000
 11
12.3500
 21
39.1000
 31
0.0000
  0
ARC
  8
133
 10
12.3500
 20
36.0000
 30
0.0000
 40
3.1000
 50
90.0000
 51
180.0000
  0
CIRCLE
  8
133
 10
27.5000
 20
30.5500
 30
0.0000
 40
1.0000
  0
CIRCLE
  8
133
 10
19.2000
 20
37.2000
 30
0.0000
 40
1.0000
  0
CIRCLE
  8
133
 10
5.2500
 20
31.5500
 30
0.0000
 40
0.7000
  0
CIRCLE
  8
133
 10
32.6500
 20
29.1000
 30
0.0000
 40
0.7000
  0
CIRCLE
  8
133
 10
5.2500
 20
11.1500
 30
0.0000
 40
0.7000
  0
CIRCLE
  8
133
 10
32.6500
 20
8.7500
 30
0.0000
 40
0.7000
  0
CIRCLE
  8
133
 10
18.9500
 20
20.1500
 30
0.0000
 40
0.7000
  0
CIRCLE
  8
133
 10
-6.0500
 20
20.1500
 30
0.0000
 40
2.6000
  0
CIRCLE
  8
133
 10
43.9500
 20
20.1500
 30
0.0000
 40
2.6000
  0
ENDSEC
  0
EOF
