  0
SECTION
  2
HEADER
  9
$ACADVER
  1
AC1009
  9
$FILLMODE
 70
0
  9
$EXTMIN
 10
-71.5500
 20
-159.4160
 30
0.0000
  9
$EXTMAX
 10
137.2400
 20
252.9167
 30
0.0000
  0
ENDSEC
  0
SECTION
  2
TABLES
  0
TABLE
  2
LTYPE
 70
1
  0
LTYPE
  2
CONTINUOUS
 70
64
  3
Solid line
 72
65
 73
0
 40
0
  0
ENDTAB
  0
TABLE
  2
LAYER
 70
255
  0
LAYER
  2
240
 70
64
 62
178
  6
CONTINUOUS
  0
ENDTAB
  0
ENDSEC
  0
SECTION
  2
BLOCKS
  0
BLOCK
  8
0
  2
RECT
 70
64
 10
0.0000
 20
0.0000
 30
0.0000
  3
RECT
  0
SOLID
  8
0
 10
-0.5000
 20
-0.5000
 30
0.0000
 11
0.5000
 21
-0.5000
 31
0.0000
 12
-0.5000
 22
0.5000
 32
0.0000
 13
0.5000
 23
0.5000
 33
0.0000
  0
ENDBLK
  8
0
  0
BLOCK
  8
0
  2
PIE
 70
64
 10
0.0000
 20
0.0000
 30
0.0000
  3
PIE
  0
CIRCLE
  8
0
 10
0.0000
 20
0.0000
 30
0.0000
 40
0.5000
  0
ENDBLK
  8
0
  0
BLOCK
  8
0
  2
OCTAGONP
 70
64
 10
0.0000
 20
0.0000
 30
0.0000
  3
OCTAGONP
  0
POLYLINE
  8
0
 66
1
 10
0.0000
 20
0.0000
 30
0.0000
 40
0.0000
 41
0.0000
 70
1
  0
VERTEX
  8
0
 10
-0.5000
 20
-0.2071
 30
0.0000
  0
VERTEX
  8
0
 10
-0.5000
 20
0.2071
 30
0.0000
  0
VERTEX
  8
0
 10
-0.2071
 20
0.5000
 30
0.0000
  0
VERTEX
  8
0
 10
0.2071
 20
0.5000
 30
0.0000
  0
VERTEX
  8
0
 10
0.5000
 20
0.2071
 30
0.0000
  0
VERTEX
  8
0
 10
0.5000
 20
-0.2071
 30
0.0000
  0
VERTEX
  8
0
 10
0.2071
 20
-0.5000
 30
0.0000
  0
VERTEX
  8
0
 10
-0.2071
 20
-0.5000
 30
0.0000
  0
SEQEND
  8
0
  0
ENDBLK
  8
0
  0
BLOCK
  8
0
  2
SQUAREP
 70
64
 10
0.0000
 20
0.0000
 30
0.0000
  3
SQUAREP
  0
SOLID
  8
0
 10
-0.5000
 20
-0.5000
 30
0.0000
 11
0.5000
 21
-0.5000
 31
0.0000
 12
-0.5000
 22
0.5000
 32
0.0000
 13
0.5000
 23
0.5000
 33
0.0000
  0
ENDBLK
  8
0
  0
BLOCK
  8
0
  2
ROUNDP
 70
64
 10
0.0000
 20
0.0000
 30
0.0000
  3
ROUNDP
  0
CIRCLE
  8
0
 10
0.0000
 20
0.0000
 30
0.0000
 40
0.5000
  0
ENDBLK
  8
0
  0
BLOCK
  8
0
  2
ANNULUSP
 70
64
 10
0.0000
 20
0.0000
 30
0.0000
  3
ANNULUSP
  0
CIRCLE
  8
0
 10
0.0000
 20
0.0000
 30
0.0000
 40
0.5000
  0
ENDBLK
  8
0
  0
BLOCK
  8
0
  2
THERMALP
 70
64
 10
0.0000
 20
0.0000
 30
0.0000
  3
THERMALP
  0
LINE
  8
0
 10
-0.2379
 20
0.4500
 30
0.0000
 11
0.2379
 21
0.4500
 31
0.0000
  0
LINE
  8
0
 10
0.4500
 20
0.2379
 30
0.0000
 11
0.4500
 21
-0.2379
 31
0.0000
  0
LINE
  8
0
 10
0.2379
 20
-0.4500
 30
0.0000
 11
-0.2379
 21
-0.4500
 31
0.0000
  0
LINE
  8
0
 10
-0.4500
 20
-0.2379
 30
0.0000
 11
-0.4500
 21
0.2379
 31
0.0000
  0
ENDBLK
  8
0
  0
BLOCK
  8
0
  2
OCTAGONV
 70
64
 10
0.0000
 20
0.0000
 30
0.0000
  3
OCTAGONV
  0
POLYLINE
  8
0
 66
1
 10
0.0000
 20
0.0000
 30
0.0000
 40
0.0000
 41
0.0000
 70
1
  0
VERTEX
  8
0
 10
-0.5000
 20
-0.2071
 30
0.0000
  0
VERTEX
  8
0
 10
-0.5000
 20
0.2071
 30
0.0000
  0
VERTEX
  8
0
 10
-0.2071
 20
0.5000
 30
0.0000
  0
VERTEX
  8
0
 10
0.2071
 20
0.5000
 30
0.0000
  0
VERTEX
  8
0
 10
0.5000
 20
0.2071
 30
0.0000
  0
VERTEX
  8
0
 10
0.5000
 20
-0.2071
 30
0.0000
  0
VERTEX
  8
0
 10
0.2071
 20
-0.5000
 30
0.0000
  0
VERTEX
  8
0
 10
-0.2071
 20
-0.5000
 30
0.0000
  0
SEQEND
  8
0
  0
ENDBLK
  8
0
  0
BLOCK
  8
0
  2
SQUAREV
 70
64
 10
0.0000
 20
0.0000
 30
0.0000
  3
SQUAREV
  0
SOLID
  8
0
 10
-0.5000
 20
-0.5000
 30
0.0000
 11
0.5000
 21
-0.5000
 31
0.0000
 12
-0.5000
 22
0.5000
 32
0.0000
 13
0.5000
 23
0.5000
 33
0.0000
  0
ENDBLK
  8
0
  0
BLOCK
  8
0
  2
ROUNDV
 70
64
 10
0.0000
 20
0.0000
 30
0.0000
  3
ROUNDV
  0
CIRCLE
  8
0
 10
0.0000
 20
0.0000
 30
0.0000
 40
0.5000
  0
ENDBLK
  8
0
  0
BLOCK
  8
0
  2
ANNULUSV
 70
64
 10
0.0000
 20
0.0000
 30
0.0000
  3
ANNULUSV
  0
CIRCLE
  8
0
 10
0.0000
 20
0.0000
 30
0.0000
 40
0.5000
  0
ENDBLK
  8
0
  0
BLOCK
  8
0
  2
THERMALV
 70
64
 10
0.0000
 20
0.0000
 30
0.0000
  3
THERMALV
  0
LINE
  8
0
 10
-0.2379
 20
0.4500
 30
0.0000
 11
0.2379
 21
0.4500
 31
0.0000
  0
LINE
  8
0
 10
0.4500
 20
0.2379
 30
0.0000
 11
0.4500
 21
-0.2379
 31
0.0000
  0
LINE
  8
0
 10
0.2379
 20
-0.4500
 30
0.0000
 11
-0.2379
 21
-0.4500
 31
0.0000
  0
LINE
  8
0
 10
-0.4500
 20
-0.2379
 30
0.0000
 11
-0.4500
 21
0.2379
 31
0.0000
  0
ENDBLK
  8
0
  0
ENDSEC
  0
SECTION
  2
ENTITIES
  0
ARC
  8
240
 10
-36.5500
 20
-1.4500
 30
0.0000
 40
0.5000
 50
90.0000
 51
180.0000
  0
LINE
  8
240
 10
-37.0500
 20
-1.4500
 30
0.0000
 11
-37.0500
 21
-12.8500
 31
0.0000
  0
ARC
  8
240
 10
-36.5500
 20
-12.8500
 30
0.0000
 40
0.5000
 50
180.0000
 51
270.0000
  0
LINE
  8
240
 10
-36.5500
 20
-13.3500
 30
0.0000
 11
0.1000
 21
-13.3500
 31
0.0000
  0
ARC
  8
240
 10
0.1000
 20
-12.8500
 30
0.0000
 40
0.5000
 50
270.0000
 51
0.0000
  0
ARC
  8
240
 10
0.1000
 20
-12.8500
 30
0.0000
 40
0.5000
 50
0.0000
 51
90.0000
  0
LINE
  8
240
 10
0.1000
 20
-12.3500
 30
0.0000
 11
-36.0500
 21
-12.3500
 31
0.0000
  0
LINE
  8
240
 10
-36.0500
 20
-12.3500
 30
0.0000
 11
-36.0500
 21
-1.4500
 31
0.0000
  0
ARC
  8
240
 10
-36.5500
 20
-1.4500
 30
0.0000
 40
0.5000
 50
0.0000
 51
90.0000
  0
ARC
  8
240
 10
3.1000
 20
-12.8500
 30
0.0000
 40
0.5000
 50
180.0000
 51
270.0000
  0
LINE
  8
240
 10
3.1000
 20
-13.3500
 30
0.0000
 11
34.8000
 21
-13.3500
 31
0.0000
  0
ARC
  8
240
 10
34.8000
 20
-12.8500
 30
0.0000
 40
0.5000
 50
270.0000
 51
0.0000
  0
ARC
  8
240
 10
34.8000
 20
-12.8500
 30
0.0000
 40
0.5000
 50
0.0000
 51
90.0000
  0
LINE
  8
240
 10
34.8000
 20
-12.3500
 30
0.0000
 11
3.1000
 21
-12.3500
 31
0.0000
  0
ARC
  8
240
 10
3.1000
 20
-12.8500
 30
0.0000
 40
0.5000
 50
90.0000
 51
180.0000
  0
ARC
  8
240
 10
-36.5500
 20
1.5500
 30
0.0000
 40
0.5000
 50
180.0000
 51
270.0000
  0
LINE
  8
240
 10
-37.0500
 20
1.5500
 30
0.0000
 11
-37.0500
 21
38.8000
 31
0.0000
  0
ARC
  8
240
 10
-36.5500
 20
38.8000
 30
0.0000
 40
0.5000
 50
90.0000
 51
180.0000
  0
ARC
  8
240
 10
-36.5500
 20
38.8000
 30
0.0000
 40
0.5000
 50
0.0000
 51
90.0000
  0
LINE
  8
240
 10
-36.0500
 20
38.8000
 30
0.0000
 11
-36.0500
 21
1.5500
 31
0.0000
  0
ARC
  8
240
 10
-36.5500
 20
1.5500
 30
0.0000
 40
0.5000
 50
270.0000
 51
0.0000
  0
ARC
  8
240
 10
-36.5500
 20
41.8000
 30
0.0000
 40
0.5000
 50
270.0000
 51
0.0000
  0
LINE
  8
240
 10
-36.0500
 20
41.8000
 30
0.0000
 11
-36.0500
 21
54.6500
 31
0.0000
  0
LINE
  8
240
 10
-36.0500
 20
54.6500
 30
0.0000
 11
0.1000
 21
54.6500
 31
0.0000
  0
ARC
  8
240
 10
0.1000
 20
55.1500
 30
0.0000
 40
0.5000
 50
270.0000
 51
0.0000
  0
ARC
  8
240
 10
0.1000
 20
55.1500
 30
0.0000
 40
0.5000
 50
0.0000
 51
90.0000
  0
LINE
  8
240
 10
0.1000
 20
55.6500
 30
0.0000
 11
-36.5500
 21
55.6500
 31
0.0000
  0
ARC
  8
240
 10
-36.5500
 20
55.1500
 30
0.0000
 40
0.5000
 50
90.0000
 51
180.0000
  0
LINE
  8
240
 10
-37.0500
 20
55.1500
 30
0.0000
 11
-37.0500
 21
41.8000
 31
0.0000
  0
ARC
  8
240
 10
-36.5500
 20
41.8000
 30
0.0000
 40
0.5000
 50
180.0000
 51
270.0000
  0
ARC
  8
240
 10
3.1000
 20
55.1500
 30
0.0000
 40
0.5000
 50
90.0000
 51
180.0000
  0
LINE
  8
240
 10
3.1000
 20
55.6500
 30
0.0000
 11
34.8000
 21
55.6500
 31
0.0000
  0
ARC
  8
240
 10
34.8000
 20
55.1500
 30
0.0000
 40
0.5000
 50
0.0000
 51
90.0000
  0
ARC
  8
240
 10
34.8000
 20
55.1500
 30
0.0000
 40
0.5000
 50
270.0000
 51
0.0000
  0
LINE
  8
240
 10
34.8000
 20
54.6500
 30
0.0000
 11
3.1000
 21
54.6500
 31
0.0000
  0
ARC
  8
240
 10
3.1000
 20
55.1500
 30
0.0000
 40
0.5000
 50
180.0000
 51
270.0000
  0
ARC
  8
240
 10
37.8000
 20
55.1500
 30
0.0000
 40
0.5000
 50
90.0000
 51
180.0000
  0
LINE
  8
240
 10
37.8000
 20
55.6500
 30
0.0000
 11
74.4500
 21
55.6500
 31
0.0000
  0
ARC
  8
240
 10
74.4500
 20
55.1500
 30
0.0000
 40
0.5000
 50
0.0000
 51
90.0000
  0
LINE
  8
240
 10
74.9500
 20
55.1500
 30
0.0000
 11
74.9500
 21
41.8000
 31
0.0000
  0
ARC
  8
240
 10
74.4500
 20
41.8000
 30
0.0000
 40
0.5000
 50
270.0000
 51
0.0000
  0
ARC
  8
240
 10
74.4500
 20
41.8000
 30
0.0000
 40
0.5000
 50
180.0000
 51
270.0000
  0
LINE
  8
240
 10
73.9500
 20
41.8000
 30
0.0000
 11
73.9500
 21
54.6500
 31
0.0000
  0
LINE
  8
240
 10
73.9500
 20
54.6500
 30
0.0000
 11
37.8000
 21
54.6500
 31
0.0000
  0
ARC
  8
240
 10
37.8000
 20
55.1500
 30
0.0000
 40
0.5000
 50
180.0000
 51
270.0000
  0
ARC
  8
240
 10
37.8000
 20
-12.8500
 30
0.0000
 40
0.5000
 50
90.0000
 51
180.0000
  0
LINE
  8
240
 10
37.8000
 20
-12.3500
 30
0.0000
 11
73.9500
 21
-12.3500
 31
0.0000
  0
LINE
  8
240
 10
73.9500
 20
-12.3500
 30
0.0000
 11
73.9500
 21
-1.4500
 31
0.0000
  0
ARC
  8
240
 10
74.4500
 20
-1.4500
 30
0.0000
 40
0.5000
 50
90.0000
 51
180.0000
  0
ARC
  8
240
 10
74.4500
 20
-1.4500
 30
0.0000
 40
0.5000
 50
0.0000
 51
90.0000
  0
LINE
  8
240
 10
74.9500
 20
-1.4500
 30
0.0000
 11
74.9500
 21
-12.8500
 31
0.0000
  0
ARC
  8
240
 10
74.4500
 20
-12.8500
 30
0.0000
 40
0.5000
 50
270.0000
 51
0.0000
  0
LINE
  8
240
 10
74.4500
 20
-13.3500
 30
0.0000
 11
37.8000
 21
-13.3500
 31
0.0000
  0
ARC
  8
240
 10
37.8000
 20
-12.8500
 30
0.0000
 40
0.5000
 50
180.0000
 51
270.0000
  0
ARC
  8
240
 10
74.4500
 20
1.5500
 30
0.0000
 40
0.5000
 50
270.0000
 51
0.0000
  0
LINE
  8
240
 10
74.9500
 20
1.5500
 30
0.0000
 11
74.9500
 21
38.8000
 31
0.0000
  0
ARC
  8
240
 10
74.4500
 20
38.8000
 30
0.0000
 40
0.5000
 50
0.0000
 51
90.0000
  0
ARC
  8
240
 10
74.4500
 20
38.8000
 30
0.0000
 40
0.5000
 50
90.0000
 51
180.0000
  0
LINE
  8
240
 10
73.9500
 20
38.8000
 30
0.0000
 11
73.9500
 21
1.5500
 31
0.0000
  0
ARC
  8
240
 10
74.4500
 20
1.5500
 30
0.0000
 40
0.5000
 50
180.0000
 51
270.0000
  0
ARC
  8
240
 10
-36.5500
 20
185.5500
 30
0.0000
 40
0.5000
 50
90.0000
 51
180.0000
  0
LINE
  8
240
 10
-37.0500
 20
185.5500
 30
0.0000
 11
-37.0500
 21
174.1500
 31
0.0000
  0
ARC
  8
240
 10
-36.5500
 20
174.1500
 30
0.0000
 40
0.5000
 50
180.0000
 51
270.0000
  0
LINE
  8
240
 10
-36.5500
 20
173.6500
 30
0.0000
 11
0.1000
 21
173.6500
 31
0.0000
  0
ARC
  8
240
 10
0.1000
 20
174.1500
 30
0.0000
 40
0.5000
 50
270.0000
 51
0.0000
  0
ARC
  8
240
 10
0.1000
 20
174.1500
 30
0.0000
 40
0.5000
 50
0.0000
 51
90.0000
  0
LINE
  8
240
 10
0.1000
 20
174.6500
 30
0.0000
 11
-36.0500
 21
174.6500
 31
0.0000
  0
LINE
  8
240
 10
-36.0500
 20
174.6500
 30
0.0000
 11
-36.0500
 21
185.5500
 31
0.0000
  0
ARC
  8
240
 10
-36.5500
 20
185.5500
 30
0.0000
 40
0.5000
 50
0.0000
 51
90.0000
  0
ARC
  8
240
 10
3.1000
 20
174.1500
 30
0.0000
 40
0.5000
 50
180.0000
 51
270.0000
  0
LINE
  8
240
 10
3.1000
 20
173.6500
 30
0.0000
 11
34.8000
 21
173.6500
 31
0.0000
  0
ARC
  8
240
 10
34.8000
 20
174.1500
 30
0.0000
 40
0.5000
 50
270.0000
 51
0.0000
  0
ARC
  8
240
 10
34.8000
 20
174.1500
 30
0.0000
 40
0.5000
 50
0.0000
 51
90.0000
  0
LINE
  8
240
 10
34.8000
 20
174.6500
 30
0.0000
 11
3.1000
 21
174.6500
 31
0.0000
  0
ARC
  8
240
 10
3.1000
 20
174.1500
 30
0.0000
 40
0.5000
 50
90.0000
 51
180.0000
  0
ARC
  8
240
 10
-36.5500
 20
188.5500
 30
0.0000
 40
0.5000
 50
180.0000
 51
270.0000
  0
LINE
  8
240
 10
-37.0500
 20
188.5500
 30
0.0000
 11
-37.0500
 21
230.8000
 31
0.0000
  0
ARC
  8
240
 10
-36.5500
 20
230.8000
 30
0.0000
 40
0.5000
 50
90.0000
 51
180.0000
  0
ARC
  8
240
 10
-36.5500
 20
230.8000
 30
0.0000
 40
0.5000
 50
0.0000
 51
90.0000
  0
LINE
  8
240
 10
-36.0500
 20
230.8000
 30
0.0000
 11
-36.0500
 21
188.5500
 31
0.0000
  0
ARC
  8
240
 10
-36.5500
 20
188.5500
 30
0.0000
 40
0.5000
 50
270.0000
 51
0.0000
  0
ARC
  8
240
 10
-36.5500
 20
233.8000
 30
0.0000
 40
0.5000
 50
270.0000
 51
0.0000
  0
LINE
  8
240
 10
-36.0500
 20
233.8000
 30
0.0000
 11
-36.0500
 21
246.6500
 31
0.0000
  0
LINE
  8
240
 10
-36.0500
 20
246.6500
 30
0.0000
 11
0.1000
 21
246.6500
 31
0.0000
  0
ARC
  8
240
 10
0.1000
 20
247.1500
 30
0.0000
 40
0.5000
 50
270.0000
 51
0.0000
  0
ARC
  8
240
 10
0.1000
 20
247.1500
 30
0.0000
 40
0.5000
 50
0.0000
 51
90.0000
  0
LINE
  8
240
 10
0.1000
 20
247.6500
 30
0.0000
 11
-36.5500
 21
247.6500
 31
0.0000
  0
ARC
  8
240
 10
-36.5500
 20
247.1500
 30
0.0000
 40
0.5000
 50
90.0000
 51
180.0000
  0
LINE
  8
240
 10
-37.0500
 20
247.1500
 30
0.0000
 11
-37.0500
 21
233.8000
 31
0.0000
  0
ARC
  8
240
 10
-36.5500
 20
233.8000
 30
0.0000
 40
0.5000
 50
180.0000
 51
270.0000
  0
ARC
  8
240
 10
3.1000
 20
247.1500
 30
0.0000
 40
0.5000
 50
90.0000
 51
180.0000
  0
LINE
  8
240
 10
3.1000
 20
247.6500
 30
0.0000
 11
34.8000
 21
247.6500
 31
0.0000
  0
ARC
  8
240
 10
34.8000
 20
247.1500
 30
0.0000
 40
0.5000
 50
0.0000
 51
90.0000
  0
ARC
  8
240
 10
34.8000
 20
247.1500
 30
0.0000
 40
0.5000
 50
270.0000
 51
0.0000
  0
LINE
  8
240
 10
34.8000
 20
246.6500
 30
0.0000
 11
3.1000
 21
246.6500
 31
0.0000
  0
ARC
  8
240
 10
3.1000
 20
247.1500
 30
0.0000
 40
0.5000
 50
180.0000
 51
270.0000
  0
ARC
  8
240
 10
37.8000
 20
247.1500
 30
0.0000
 40
0.5000
 50
90.0000
 51
180.0000
  0
LINE
  8
240
 10
37.8000
 20
247.6500
 30
0.0000
 11
74.4500
 21
247.6500
 31
0.0000
  0
ARC
  8
240
 10
74.4500
 20
247.1500
 30
0.0000
 40
0.5000
 50
0.0000
 51
90.0000
  0
LINE
  8
240
 10
74.9500
 20
247.1500
 30
0.0000
 11
74.9500
 21
233.8000
 31
0.0000
  0
ARC
  8
240
 10
74.4500
 20
233.8000
 30
0.0000
 40
0.5000
 50
270.0000
 51
0.0000
  0
ARC
  8
240
 10
74.4500
 20
233.8000
 30
0.0000
 40
0.5000
 50
180.0000
 51
270.0000
  0
LINE
  8
240
 10
73.9500
 20
233.8000
 30
0.0000
 11
73.9500
 21
246.6500
 31
0.0000
  0
LINE
  8
240
 10
73.9500
 20
246.6500
 30
0.0000
 11
37.8000
 21
246.6500
 31
0.0000
  0
ARC
  8
240
 10
37.8000
 20
247.1500
 30
0.0000
 40
0.5000
 50
180.0000
 51
270.0000
  0
ARC
  8
240
 10
37.8000
 20
174.1500
 30
0.0000
 40
0.5000
 50
90.0000
 51
180.0000
  0
LINE
  8
240
 10
37.8000
 20
174.6500
 30
0.0000
 11
73.9500
 21
174.6500
 31
0.0000
  0
LINE
  8
240
 10
73.9500
 20
174.6500
 30
0.0000
 11
73.9500
 21
185.5500
 31
0.0000
  0
ARC
  8
240
 10
74.4500
 20
185.5500
 30
0.0000
 40
0.5000
 50
90.0000
 51
180.0000
  0
ARC
  8
240
 10
74.4500
 20
185.5500
 30
0.0000
 40
0.5000
 50
0.0000
 51
90.0000
  0
LINE
  8
240
 10
74.9500
 20
185.5500
 30
0.0000
 11
74.9500
 21
174.1500
 31
0.0000
  0
ARC
  8
240
 10
74.4500
 20
174.1500
 30
0.0000
 40
0.5000
 50
270.0000
 51
0.0000
  0
LINE
  8
240
 10
74.4500
 20
173.6500
 30
0.0000
 11
37.8000
 21
173.6500
 31
0.0000
  0
ARC
  8
240
 10
37.8000
 20
174.1500
 30
0.0000
 40
0.5000
 50
180.0000
 51
270.0000
  0
ARC
  8
240
 10
74.4500
 20
188.5500
 30
0.0000
 40
0.5000
 50
270.0000
 51
0.0000
  0
LINE
  8
240
 10
74.9500
 20
188.5500
 30
0.0000
 11
74.9500
 21
230.8000
 31
0.0000
  0
ARC
  8
240
 10
74.4500
 20
230.8000
 30
0.0000
 40
0.5000
 50
0.0000
 51
90.0000
  0
ARC
  8
240
 10
74.4500
 20
230.8000
 30
0.0000
 40
0.5000
 50
90.0000
 51
180.0000
  0
LINE
  8
240
 10
73.9500
 20
230.8000
 30
0.0000
 11
73.9500
 21
188.5500
 31
0.0000
  0
ARC
  8
240
 10
74.4500
 20
188.5500
 30
0.0000
 40
0.5000
 50
180.0000
 51
270.0000
  0
ARC
  8
240
 10
-36.5500
 20
75.5500
 30
0.0000
 40
0.5000
 50
90.0000
 51
180.0000
  0
LINE
  8
240
 10
-37.0500
 20
75.5500
 30
0.0000
 11
-37.0500
 21
64.1500
 31
0.0000
  0
ARC
  8
240
 10
-36.5500
 20
64.1500
 30
0.0000
 40
0.5000
 50
180.0000
 51
270.0000
  0
LINE
  8
240
 10
-36.5500
 20
63.6500
 30
0.0000
 11
0.1000
 21
63.6500
 31
0.0000
  0
ARC
  8
240
 10
0.1000
 20
64.1500
 30
0.0000
 40
0.5000
 50
270.0000
 51
0.0000
  0
ARC
  8
240
 10
0.1000
 20
64.1500
 30
0.0000
 40
0.5000
 50
0.0000
 51
90.0000
  0
LINE
  8
240
 10
0.1000
 20
64.6500
 30
0.0000
 11
-36.0500
 21
64.6500
 31
0.0000
  0
LINE
  8
240
 10
-36.0500
 20
64.6500
 30
0.0000
 11
-36.0500
 21
75.5500
 31
0.0000
  0
ARC
  8
240
 10
-36.5500
 20
75.5500
 30
0.0000
 40
0.5000
 50
0.0000
 51
90.0000
  0
ARC
  8
240
 10
3.1000
 20
64.1500
 30
0.0000
 40
0.5000
 50
180.0000
 51
270.0000
  0
LINE
  8
240
 10
3.1000
 20
63.6500
 30
0.0000
 11
34.8000
 21
63.6500
 31
0.0000
  0
ARC
  8
240
 10
34.8000
 20
64.1500
 30
0.0000
 40
0.5000
 50
270.0000
 51
0.0000
  0
ARC
  8
240
 10
34.8000
 20
64.1500
 30
0.0000
 40
0.5000
 50
0.0000
 51
90.0000
  0
LINE
  8
240
 10
34.8000
 20
64.6500
 30
0.0000
 11
3.1000
 21
64.6500
 31
0.0000
  0
ARC
  8
240
 10
3.1000
 20
64.1500
 30
0.0000
 40
0.5000
 50
90.0000
 51
180.0000
  0
ARC
  8
240
 10
-36.5500
 20
78.5500
 30
0.0000
 40
0.5000
 50
180.0000
 51
270.0000
  0
LINE
  8
240
 10
-37.0500
 20
78.5500
 30
0.0000
 11
-37.0500
 21
148.8000
 31
0.0000
  0
ARC
  8
240
 10
-36.5500
 20
148.8000
 30
0.0000
 40
0.5000
 50
90.0000
 51
180.0000
  0
ARC
  8
240
 10
-36.5500
 20
148.8000
 30
0.0000
 40
0.5000
 50
0.0000
 51
90.0000
  0
LINE
  8
240
 10
-36.0500
 20
148.8000
 30
0.0000
 11
-36.0500
 21
78.5500
 31
0.0000
  0
ARC
  8
240
 10
-36.5500
 20
78.5500
 30
0.0000
 40
0.5000
 50
270.0000
 51
0.0000
  0
ARC
  8
240
 10
-36.5500
 20
151.8000
 30
0.0000
 40
0.5000
 50
270.0000
 51
0.0000
  0
LINE
  8
240
 10
-36.0500
 20
151.8000
 30
0.0000
 11
-36.0500
 21
164.6500
 31
0.0000
  0
LINE
  8
240
 10
-36.0500
 20
164.6500
 30
0.0000
 11
0.1000
 21
164.6500
 31
0.0000
  0
ARC
  8
240
 10
0.1000
 20
165.1500
 30
0.0000
 40
0.5000
 50
270.0000
 51
0.0000
  0
ARC
  8
240
 10
0.1000
 20
165.1500
 30
0.0000
 40
0.5000
 50
0.0000
 51
90.0000
  0
LINE
  8
240
 10
0.1000
 20
165.6500
 30
0.0000
 11
-36.5500
 21
165.6500
 31
0.0000
  0
ARC
  8
240
 10
-36.5500
 20
165.1500
 30
0.0000
 40
0.5000
 50
90.0000
 51
180.0000
  0
LINE
  8
240
 10
-37.0500
 20
165.1500
 30
0.0000
 11
-37.0500
 21
151.8000
 31
0.0000
  0
ARC
  8
240
 10
-36.5500
 20
151.8000
 30
0.0000
 40
0.5000
 50
180.0000
 51
270.0000
  0
ARC
  8
240
 10
3.1000
 20
165.1500
 30
0.0000
 40
0.5000
 50
90.0000
 51
180.0000
  0
LINE
  8
240
 10
3.1000
 20
165.6500
 30
0.0000
 11
34.8000
 21
165.6500
 31
0.0000
  0
ARC
  8
240
 10
34.8000
 20
165.1500
 30
0.0000
 40
0.5000
 50
0.0000
 51
90.0000
  0
ARC
  8
240
 10
34.8000
 20
165.1500
 30
0.0000
 40
0.5000
 50
270.0000
 51
0.0000
  0
LINE
  8
240
 10
34.8000
 20
164.6500
 30
0.0000
 11
3.1000
 21
164.6500
 31
0.0000
  0
ARC
  8
240
 10
3.1000
 20
165.1500
 30
0.0000
 40
0.5000
 50
180.0000
 51
270.0000
  0
ARC
  8
240
 10
37.8000
 20
165.1500
 30
0.0000
 40
0.5000
 50
90.0000
 51
180.0000
  0
LINE
  8
240
 10
37.8000
 20
165.6500
 30
0.0000
 11
74.4500
 21
165.6500
 31
0.0000
  0
ARC
  8
240
 10
74.4500
 20
165.1500
 30
0.0000
 40
0.5000
 50
0.0000
 51
90.0000
  0
LINE
  8
240
 10
74.9500
 20
165.1500
 30
0.0000
 11
74.9500
 21
151.8000
 31
0.0000
  0
ARC
  8
240
 10
74.4500
 20
151.8000
 30
0.0000
 40
0.5000
 50
270.0000
 51
0.0000
  0
ARC
  8
240
 10
74.4500
 20
151.8000
 30
0.0000
 40
0.5000
 50
180.0000
 51
270.0000
  0
LINE
  8
240
 10
73.9500
 20
151.8000
 30
0.0000
 11
73.9500
 21
164.6500
 31
0.0000
  0
LINE
  8
240
 10
73.9500
 20
164.6500
 30
0.0000
 11
37.8000
 21
164.6500
 31
0.0000
  0
ARC
  8
240
 10
37.8000
 20
165.1500
 30
0.0000
 40
0.5000
 50
180.0000
 51
270.0000
  0
ARC
  8
240
 10
37.8000
 20
64.1500
 30
0.0000
 40
0.5000
 50
90.0000
 51
180.0000
  0
LINE
  8
240
 10
37.8000
 20
64.6500
 30
0.0000
 11
73.9500
 21
64.6500
 31
0.0000
  0
LINE
  8
240
 10
73.9500
 20
64.6500
 30
0.0000
 11
73.9500
 21
75.5500
 31
0.0000
  0
ARC
  8
240
 10
74.4500
 20
75.5500
 30
0.0000
 40
0.5000
 50
90.0000
 51
180.0000
  0
ARC
  8
240
 10
74.4500
 20
75.5500
 30
0.0000
 40
0.5000
 50
0.0000
 51
90.0000
  0
LINE
  8
240
 10
74.9500
 20
75.5500
 30
0.0000
 11
74.9500
 21
64.1500
 31
0.0000
  0
ARC
  8
240
 10
74.4500
 20
64.1500
 30
0.0000
 40
0.5000
 50
270.0000
 51
0.0000
  0
LINE
  8
240
 10
74.4500
 20
63.6500
 30
0.0000
 11
37.8000
 21
63.6500
 31
0.0000
  0
ARC
  8
240
 10
37.8000
 20
64.1500
 30
0.0000
 40
0.5000
 50
180.0000
 51
270.0000
  0
ARC
  8
240
 10
74.4500
 20
78.5500
 30
0.0000
 40
0.5000
 50
270.0000
 51
0.0000
  0
LINE
  8
240
 10
74.9500
 20
78.5500
 30
0.0000
 11
74.9500
 21
148.8000
 31
0.0000
  0
ARC
  8
240
 10
74.4500
 20
148.8000
 30
0.0000
 40
0.5000
 50
0.0000
 51
90.0000
  0
ARC
  8
240
 10
74.4500
 20
148.8000
 30
0.0000
 40
0.5000
 50
90.0000
 51
180.0000
  0
LINE
  8
240
 10
73.9500
 20
148.8000
 30
0.0000
 11
73.9500
 21
78.5500
 31
0.0000
  0
ARC
  8
240
 10
74.4500
 20
78.5500
 30
0.0000
 40
0.5000
 50
180.0000
 51
270.0000
  0
LINE
  8
240
 10
-4.2000
 20
190.3000
 30
0.0000
 11
-4.2000
 21
231.0000
 31
0.0000
  0
LINE
  8
240
 10
-4.2000
 20
231.0000
 30
0.0000
 11
42.1000
 21
231.0000
 31
0.0000
  0
LINE
  8
240
 10
-0.3000
 20
136.9500
 30
0.0000
 11
40.2000
 21
136.9500
 31
0.0000
  0
LINE
  8
240
 10
40.2000
 20
136.9500
 30
0.0000
 11
40.2000
 21
94.3500
 31
0.0000
  0
LINE
  8
240
 10
40.2000
 20
94.3500
 30
0.0000
 11
-0.3000
 21
94.3500
 31
0.0000
  0
LINE
  8
240
 10
-0.3000
 20
94.3500
 30
0.0000
 11
-0.3000
 21
136.9500
 31
0.0000
  0
LINE
  8
240
 10
-4.2000
 20
190.3000
 30
0.0000
 11
42.1000
 21
190.3000
 31
0.0000
  0
LINE
  8
240
 10
42.1000
 20
190.3000
 30
0.0000
 11
42.1000
 21
231.0000
 31
0.0000
  0
LINE
  8
240
 10
36.6000
 20
-0.3000
 30
0.0000
 11
36.6000
 21
40.6000
 31
0.0000
  0
LINE
  8
240
 10
1.3000
 20
40.6000
 30
0.0000
 11
1.3000
 21
-0.3000
 31
0.0000
  0
LINE
  8
240
 10
-2.4000
 20
-3.0000
 30
0.0000
 11
-2.4000
 21
43.3000
 31
0.0000
  0
LINE
  8
240
 10
-1.4000
 20
44.3000
 30
0.0000
 11
4.0000
 21
44.3000
 31
0.0000
  0
LINE
  8
240
 10
1.3000
 20
40.6000
 30
0.0000
 11
4.0000
 21
40.6000
 31
0.0000
  0
ARC
  8
240
 10
4.0000
 20
41.6000
 30
0.0000
 40
1.0000
 50
270.0000
 51
0.0000
  0
ARC
  8
240
 10
-1.4000
 20
43.3000
 30
0.0000
 40
1.0000
 50
90.0000
 51
180.0000
  0
ARC
  8
240
 10
4.0000
 20
43.3000
 30
0.0000
 40
1.0000
 50
0.0000
 51
90.0000
  0
LINE
  8
240
 10
5.0000
 20
41.6000
 30
0.0000
 11
5.0000
 21
43.3000
 31
0.0000
  0
LINE
  8
240
 10
-1.4000
 20
-4.0000
 30
0.0000
 11
4.0000
 21
-4.0000
 31
0.0000
  0
LINE
  8
240
 10
1.3000
 20
-0.3000
 30
0.0000
 11
4.0000
 21
-0.3000
 31
0.0000
  0
ARC
  8
240
 10
4.0000
 20
-1.3000
 30
0.0000
 40
1.0000
 50
0.0000
 51
90.0000
  0
ARC
  8
240
 10
-1.4000
 20
-3.0000
 30
0.0000
 40
1.0000
 50
180.0000
 51
270.0000
  0
ARC
  8
240
 10
4.0000
 20
-3.0000
 30
0.0000
 40
1.0000
 50
270.0000
 51
0.0000
  0
LINE
  8
240
 10
5.0000
 20
-1.3000
 30
0.0000
 11
5.0000
 21
-3.0000
 31
0.0000
  0
LINE
  8
240
 10
40.3000
 20
43.3000
 30
0.0000
 11
40.3000
 21
-3.0000
 31
0.0000
  0
LINE
  8
240
 10
39.3000
 20
-4.0000
 30
0.0000
 11
33.9000
 21
-4.0000
 31
0.0000
  0
LINE
  8
240
 10
36.6000
 20
-0.3000
 30
0.0000
 11
33.9000
 21
-0.3000
 31
0.0000
  0
ARC
  8
240
 10
33.9000
 20
-1.3000
 30
0.0000
 40
1.0000
 50
90.0000
 51
180.0000
  0
ARC
  8
240
 10
39.3000
 20
-3.0000
 30
0.0000
 40
1.0000
 50
270.0000
 51
0.0000
  0
ARC
  8
240
 10
33.9000
 20
-3.0000
 30
0.0000
 40
1.0000
 50
180.0000
 51
270.0000
  0
LINE
  8
240
 10
32.9000
 20
-1.3000
 30
0.0000
 11
32.9000
 21
-3.0000
 31
0.0000
  0
LINE
  8
240
 10
39.3000
 20
44.3000
 30
0.0000
 11
33.9000
 21
44.3000
 31
0.0000
  0
LINE
  8
240
 10
36.6000
 20
40.6000
 30
0.0000
 11
33.9000
 21
40.6000
 31
0.0000
  0
ARC
  8
240
 10
33.9000
 20
41.6000
 30
0.0000
 40
1.0000
 50
180.0000
 51
270.0000
  0
ARC
  8
240
 10
39.3000
 20
43.3000
 30
0.0000
 40
1.0000
 50
0.0000
 51
90.0000
  0
ARC
  8
240
 10
33.9000
 20
43.3000
 30
0.0000
 40
1.0000
 50
90.0000
 51
180.0000
  0
LINE
  8
240
 10
32.9000
 20
41.6000
 30
0.0000
 11
32.9000
 21
43.3000
 31
0.0000
  0
LINE
  8
240
 10
28.9000
 20
44.3000
 30
0.0000
 11
9.0000
 21
44.3000
 31
0.0000
  0
LINE
  8
240
 10
28.9000
 20
40.6000
 30
0.0000
 11
9.0000
 21
40.6000
 31
0.0000
  0
ARC
  8
240
 10
9.0000
 20
41.6000
 30
0.0000
 40
1.0000
 50
180.0000
 51
270.0000
  0
ARC
  8
240
 10
9.0000
 20
43.3000
 30
0.0000
 40
1.0000
 50
90.0000
 51
180.0000
  0
LINE
  8
240
 10
8.0000
 20
41.6000
 30
0.0000
 11
8.0000
 21
43.3000
 31
0.0000
  0
ARC
  8
240
 10
28.9000
 20
43.3000
 30
0.0000
 40
1.0000
 50
0.0000
 51
90.0000
  0
ARC
  8
240
 10
28.9000
 20
41.6000
 30
0.0000
 40
1.0000
 50
270.0000
 51
0.0000
  0
LINE
  8
240
 10
29.9000
 20
43.3000
 30
0.0000
 11
29.9000
 21
41.6000
 31
0.0000
  0
LINE
  8
240
 10
28.9000
 20
-0.3000
 30
0.0000
 11
9.0000
 21
-0.3000
 31
0.0000
  0
LINE
  8
240
 10
28.9000
 20
-4.0000
 30
0.0000
 11
9.0000
 21
-4.0000
 31
0.0000
  0
ARC
  8
240
 10
9.0000
 20
-3.0000
 30
0.0000
 40
1.0000
 50
180.0000
 51
270.0000
  0
ARC
  8
240
 10
9.0000
 20
-1.3000
 30
0.0000
 40
1.0000
 50
90.0000
 51
180.0000
  0
LINE
  8
240
 10
8.0000
 20
-3.0000
 30
0.0000
 11
8.0000
 21
-1.3000
 31
0.0000
  0
ARC
  8
240
 10
28.9000
 20
-1.3000
 30
0.0000
 40
1.0000
 50
0.0000
 51
90.0000
  0
ARC
  8
240
 10
28.9000
 20
-3.0000
 30
0.0000
 40
1.0000
 50
270.0000
 51
0.0000
  0
LINE
  8
240
 10
29.9000
 20
-1.3000
 30
0.0000
 11
29.9000
 21
-3.0000
 31
0.0000
  0
LINE
  8
240
 10
9.5000
 20
146.5000
 30
0.0000
 11
29.5000
 21
146.5000
 31
0.0000
  0
LINE
  8
240
 10
29.5000
 20
146.5000
 30
0.0000
 11
29.5000
 21
156.5000
 31
0.0000
  0
LINE
  8
240
 10
29.5000
 20
156.5000
 30
0.0000
 11
9.5000
 21
156.5000
 31
0.0000
  0
LINE
  8
240
 10
9.5000
 20
156.5000
 30
0.0000
 11
9.5000
 21
146.5000
 31
0.0000
  0
LINE
  8
240
 10
50.8000
 20
220.1000
 30
0.0000
 11
50.8000
 21
200.1000
 31
0.0000
  0
LINE
  8
240
 10
50.8000
 20
200.1000
 30
0.0000
 11
60.8000
 21
200.1000
 31
0.0000
  0
LINE
  8
240
 10
60.8000
 20
200.1000
 30
0.0000
 11
60.8000
 21
220.1000
 31
0.0000
  0
LINE
  8
240
 10
60.8000
 20
220.1000
 30
0.0000
 11
50.8000
 21
220.1000
 31
0.0000
  0
CIRCLE
  8
240
 10
-36.5500
 20
0.0500
 30
0.0000
 40
0.5000
  0
CIRCLE
  8
240
 10
36.3000
 20
-12.8500
 30
0.0000
 40
0.5000
  0
CIRCLE
  8
240
 10
1.6000
 20
-12.8500
 30
0.0000
 40
0.5000
  0
CIRCLE
  8
240
 10
74.4500
 20
0.0500
 30
0.0000
 40
0.5000
  0
CIRCLE
  8
240
 10
74.4500
 20
40.3000
 30
0.0000
 40
0.5000
  0
CIRCLE
  8
240
 10
36.3000
 20
55.1500
 30
0.0000
 40
0.5000
  0
CIRCLE
  8
240
 10
1.6000
 20
55.1500
 30
0.0000
 40
0.5000
  0
CIRCLE
  8
240
 10
-36.5500
 20
40.3000
 30
0.0000
 40
0.5000
  0
CIRCLE
  8
240
 10
-36.5500
 20
187.0500
 30
0.0000
 40
0.5000
  0
CIRCLE
  8
240
 10
36.3000
 20
174.1500
 30
0.0000
 40
0.5000
  0
CIRCLE
  8
240
 10
1.6000
 20
174.1500
 30
0.0000
 40
0.5000
  0
CIRCLE
  8
240
 10
74.4500
 20
187.0500
 30
0.0000
 40
0.5000
  0
CIRCLE
  8
240
 10
74.4500
 20
232.3000
 30
0.0000
 40
0.5000
  0
CIRCLE
  8
240
 10
36.3000
 20
247.1500
 30
0.0000
 40
0.5000
  0
CIRCLE
  8
240
 10
1.6000
 20
247.1500
 30
0.0000
 40
0.5000
  0
CIRCLE
  8
240
 10
-36.5500
 20
232.3000
 30
0.0000
 40
0.5000
  0
CIRCLE
  8
240
 10
-36.5500
 20
77.0500
 30
0.0000
 40
0.5000
  0
CIRCLE
  8
240
 10
36.3000
 20
64.1500
 30
0.0000
 40
0.5000
  0
CIRCLE
  8
240
 10
1.6000
 20
64.1500
 30
0.0000
 40
0.5000
  0
CIRCLE
  8
240
 10
74.4500
 20
77.0500
 30
0.0000
 40
0.5000
  0
CIRCLE
  8
240
 10
74.4500
 20
150.3000
 30
0.0000
 40
0.5000
  0
CIRCLE
  8
240
 10
36.3000
 20
165.1500
 30
0.0000
 40
0.5000
  0
CIRCLE
  8
240
 10
1.6000
 20
165.1500
 30
0.0000
 40
0.5000
  0
CIRCLE
  8
240
 10
-36.5500
 20
150.3000
 30
0.0000
 40
0.5000
  0
CIRCLE
  8
240
 10
18.9500
 20
235.6500
 30
0.0000
 40
2.5500
  0
CIRCLE
  8
240
 10
18.9500
 20
185.6500
 30
0.0000
 40
2.5500
  0
CIRCLE
  8
240
 10
-6.0500
 20
114.6500
 30
0.0000
 40
2.5500
  0
CIRCLE
  8
240
 10
43.9500
 20
114.6500
 30
0.0000
 40
2.5500
  0
CIRCLE
  8
240
 10
-0.3000
 20
94.3500
 30
0.0000
 40
1.0000
  0
CIRCLE
  8
240
 10
-21.0500
 20
114.6500
 30
0.0000
 40
3.1000
  0
CIRCLE
  8
240
 10
58.9500
 20
114.6500
 30
0.0000
 40
3.1000
  0
CIRCLE
  8
240
 10
-8.5500
 20
31.6500
 30
0.0000
 40
2.0000
  0
CIRCLE
  8
240
 10
46.4500
 20
31.6500
 30
0.0000
 40
2.0000
  0
CIRCLE
  8
240
 10
-8.5500
 20
8.6500
 30
0.0000
 40
2.0000
  0
CIRCLE
  8
240
 10
46.4500
 20
8.6500
 30
0.0000
 40
2.0000
  0
CIRCLE
  8
240
 10
58.9500
 20
20.1500
 30
0.0000
 40
3.1000
  0
CIRCLE
  8
240
 10
-21.0500
 20
20.1500
 30
0.0000
 40
3.1000
  0
CIRCLE
  8
240
 10
-6.0500
 20
20.1500
 30
0.0000
 40
2.5500
  0
CIRCLE
  8
240
 10
43.9500
 20
20.1500
 30
0.0000
 40
2.5500
  0
CIRCLE
  8
240
 10
15.4000
 20
33.7500
 30
0.0000
 40
2.0000
  0
ENDSEC
  0
EOF
