  0
SECTION
  2
HEADER
  9
$EXTMIN
 10
7.7539
 20
8.6210
 30
0.0000
  9
$EXTMAX
 10
19.870115
 20
13.444915
 30
0.0000
  0
ENDSEC
  0
SECTION
  2
TABLES
  0
TABLE
  2
LTYPE
 70
3
  0
LTYPE
  2
BYBLOCK
 70
0
  3

 72
65
 73
0
 40
0.0000
  0
LTYPE
  2
BYLAYER
 70
0
  3

 72
65
 73
0
 40
0.0000
  0
LTYPE
  2
CONTINUOUS
 70
0
  3
Solid line
 72
65
 73
0
 40
0.0000
  0
ENDTAB
  0
TABLE
  2
LAYER
 70
1
  0
LAYER
  2
0
 70
0
 62
7
  6
CONTINUOUS
  0
LAYER
  2
K5DOUTL_1__LGX
 70
0
 62
7
  6
CONTINUOUS
  0
ENDTAB
  0
TABLE
  2
STYLE
 70
0
  0
ENDTAB
  0
ENDSEC
  0
SECTION
  2
BLOCKS
  0
BLOCK
  2
ROUND_1
  3
ROUND_1
 70
64
 10
0.0000
 20
0.0000
 30
0.0000
  0
CIRCLE
  8
0
 10
0.0000
 20
0.0000
 30
0.0000
 40
0.000785
  0
ENDBLK
  0
BLOCK
  2
ROUND_57
  3
ROUND_57
 70
64
 10
0.0000
 20
0.0000
 30
0.0000
  0
CIRCLE
  8
0
 10
0.0000
 20
0.0000
 30
0.0000
 40
0.0050
  0
ENDBLK
  0
BLOCK
  2
ROUND_97
  3
ROUND_97
 70
64
 10
0.0000
 20
0.0000
 30
0.0000
  0
CIRCLE
  8
0
 10
0.0000
 20
0.0000
 30
0.0000
 40
0.004015
  0
ENDBLK
  0
ENDSEC
  0
SECTION
  2
ENTITIES
  0
POLYLINE
  8
K5DOUTL_1__LGX
 66
1
 10
0.0000
 20
0.0000
 30
0.0000
 40
0.00803
 41
0.00803
  0
VERTEX
  8
K5DOUTL_1__LGX
 10
17.1890
 20
13.4409
 30
0.0000
  0
VERTEX
  8
K5DOUTL_1__LGX
 10
17.5827
 20
13.0472
 30
0.0000
  0
VERTEX
  8
K5DOUTL_1__LGX
 10
17.5827
 20
10.3307
 30
0.0000
  0
VERTEX
  8
K5DOUTL_1__LGX
 10
17.6220
 20
10.2913
 30
0.0000
  0
VERTEX
  8
K5DOUTL_1__LGX
 10
19.8661
 20
10.2913
 30
0.0000
  0
VERTEX
  8
K5DOUTL_1__LGX
 10
19.8661
 20
8.8346
 30
0.0000
  0
VERTEX
  8
K5DOUTL_1__LGX
 10
14.1181
 20
8.8346
 30
0.0000
  0
VERTEX
  8
K5DOUTL_1__LGX
 10
14.1181
 20
10.2913
 30
0.0000
  0
VERTEX
  8
K5DOUTL_1__LGX
 10
14.9449
 20
10.2913
 30
0.0000
  0
VERTEX
  8
K5DOUTL_1__LGX
 10
14.9842
 20
10.3307
 30
0.0000
  0
VERTEX
  8
K5DOUTL_1__LGX
 10
14.9842
 20
13.0472
 30
0.0000
  0
VERTEX
  8
K5DOUTL_1__LGX
 10
15.3779
 20
13.4409
 30
0.0000
  0
VERTEX
  8
K5DOUTL_1__LGX
 10
17.1890
 20
13.4409
 30
0.0000
  0
SEQEND
  0
POLYLINE
  8
K5DOUTL_1__LGX
 66
1
 10
0.0000
 20
0.0000
 30
0.0000
 40
0.00803
 41
0.00803
  0
VERTEX
  8
K5DOUTL_1__LGX
 10
8.1339
 20
8.8346
 30
0.0000
  0
VERTEX
  8
K5DOUTL_1__LGX
 10
8.1339
 20
10.2913
 30
0.0000
  0
VERTEX
  8
K5DOUTL_1__LGX
 10
10.3779
 20
10.2913
 30
0.0000
  0
VERTEX
  8
K5DOUTL_1__LGX
 10
10.4173
 20
10.3307
 30
0.0000
  0
VERTEX
  8
K5DOUTL_1__LGX
 10
10.4173
 20
13.0472
 30
0.0000
  0
VERTEX
  8
K5DOUTL_1__LGX
 10
10.8110
 20
13.4409
 30
0.0000
  0
VERTEX
  8
K5DOUTL_1__LGX
 10
12.6220
 20
13.4409
 30
0.0000
  0
VERTEX
  8
K5DOUTL_1__LGX
 10
13.0157
 20
13.0472
 30
0.0000
  0
VERTEX
  8
K5DOUTL_1__LGX
 10
13.0157
 20
10.3307
 30
0.0000
  0
VERTEX
  8
K5DOUTL_1__LGX
 10
13.0551
 20
10.2913
 30
0.0000
  0
VERTEX
  8
K5DOUTL_1__LGX
 10
13.8819
 20
10.2913
 30
0.0000
  0
VERTEX
  8
K5DOUTL_1__LGX
 10
13.8819
 20
8.8346
 30
0.0000
  0
VERTEX
  8
K5DOUTL_1__LGX
 10
8.1339
 20
8.8346
 30
0.0000
  0
SEQEND
  0
POLYLINE
  8
K5DOUTL_1__LGX
 66
1
 10
0.0000
 20
0.0000
 30
0.0000
 40
0.00803
 41
0.00803
  0
VERTEX
  8
K5DOUTL_1__LGX
 10
7.9331
 20
8.8346
 30
0.0000
  0
VERTEX
  8
K5DOUTL_1__LGX
 10
7.8819
 20
8.7795
 30
0.0000
  0
SEQEND
  0
POLYLINE
  8
K5DOUTL_1__LGX
 66
1
 10
0.0000
 20
0.0000
 30
0.0000
 40
0.00803
 41
0.00803
  0
VERTEX
  8
K5DOUTL_1__LGX
 10
7.8425
 20
8.8346
 30
0.0000
  0
VERTEX
  8
K5DOUTL_1__LGX
 10
7.9331
 20
8.8346
 30
0.0000
  0
VERTEX
  8
K5DOUTL_1__LGX
 10
7.9331
 20
8.7520
 30
0.0000
  0
SEQEND
  0
POLYLINE
  8
K5DOUTL_1__LGX
 66
1
 10
0.0000
 20
0.0000
 30
0.0000
 40
0.0100
 41
0.0100
  0
VERTEX
  8
K5DOUTL_1__LGX
 10
7.7589
 20
8.6496
 30
0.0000
  0
VERTEX
  8
K5DOUTL_1__LGX
 10
7.7657
 20
8.6417
 30
0.0000
  0
VERTEX
  8
K5DOUTL_1__LGX
 10
7.7795
 20
8.6417
 30
0.0000
  0
VERTEX
  8
K5DOUTL_1__LGX
 10
7.7864
 20
8.6496
 30
0.0000
  0
VERTEX
  8
K5DOUTL_1__LGX
 10
7.7864
 20
8.6653
 30
0.0000
  0
VERTEX
  8
K5DOUTL_1__LGX
 10
7.7795
 20
8.6732
 30
0.0000
  0
VERTEX
  8
K5DOUTL_1__LGX
 10
7.7657
 20
8.6732
 30
0.0000
  0
VERTEX
  8
K5DOUTL_1__LGX
 10
7.7589
 20
8.6653
 30
0.0000
  0
VERTEX
  8
K5DOUTL_1__LGX
 10
7.7589
 20
8.6496
 30
0.0000
  0
SEQEND
  0
POLYLINE
  8
K5DOUTL_1__LGX
 66
1
 10
0.0000
 20
0.0000
 30
0.0000
 40
0.0100
 41
0.0100
  0
VERTEX
  8
K5DOUTL_1__LGX
 10
7.8002
 20
8.6417
 30
0.0000
  0
VERTEX
  8
K5DOUTL_1__LGX
 10
7.8002
 20
8.6732
 30
0.0000
  0
VERTEX
  8
K5DOUTL_1__LGX
 10
7.8002
 20
8.6575
 30
0.0000
  0
VERTEX
  8
K5DOUTL_1__LGX
 10
7.8140
 20
8.6732
 30
0.0000
  0
VERTEX
  8
K5DOUTL_1__LGX
 10
7.8278
 20
8.6732
 30
0.0000
  0
SEQEND
  0
POLYLINE
  8
K5DOUTL_1__LGX
 66
1
 10
0.0000
 20
0.0000
 30
0.0000
 40
0.0100
 41
0.0100
  0
VERTEX
  8
K5DOUTL_1__LGX
 10
7.8484
 20
8.6890
 30
0.0000
  0
VERTEX
  8
K5DOUTL_1__LGX
 10
7.8484
 20
8.6811
 30
0.0000
  0
VERTEX
  8
K5DOUTL_1__LGX
 10
7.8553
 20
8.6811
 30
0.0000
  0
VERTEX
  8
K5DOUTL_1__LGX
 10
7.8553
 20
8.6890
 30
0.0000
  0
VERTEX
  8
K5DOUTL_1__LGX
 10
7.8484
 20
8.6890
 30
0.0000
  0
SEQEND
  0
POLYLINE
  8
K5DOUTL_1__LGX
 66
1
 10
0.0000
 20
0.0000
 30
0.0000
 40
0.0100
 41
0.0100
  0
VERTEX
  8
K5DOUTL_1__LGX
 10
7.8484
 20
8.6653
 30
0.0000
  0
VERTEX
  8
K5DOUTL_1__LGX
 10
7.8553
 20
8.6653
 30
0.0000
  0
VERTEX
  8
K5DOUTL_1__LGX
 10
7.8553
 20
8.6417
 30
0.0000
  0
SEQEND
  0
POLYLINE
  8
K5DOUTL_1__LGX
 66
1
 10
0.0000
 20
0.0000
 30
0.0000
 40
0.0100
 41
0.0100
  0
VERTEX
  8
K5DOUTL_1__LGX
 10
7.8484
 20
8.6417
 30
0.0000
  0
VERTEX
  8
K5DOUTL_1__LGX
 10
7.8622
 20
8.6417
 30
0.0000
  0
SEQEND
  0
POLYLINE
  8
K5DOUTL_1__LGX
 66
1
 10
0.0000
 20
0.0000
 30
0.0000
 40
0.0100
 41
0.0100
  0
VERTEX
  8
K5DOUTL_1__LGX
 10
7.8898
 20
8.6260
 30
0.0000
  0
VERTEX
  8
K5DOUTL_1__LGX
 10
7.9035
 20
8.6260
 30
0.0000
  0
VERTEX
  8
K5DOUTL_1__LGX
 10
7.9104
 20
8.6338
 30
0.0000
  0
VERTEX
  8
K5DOUTL_1__LGX
 10
7.9104
 20
8.6732
 30
0.0000
  0
VERTEX
  8
K5DOUTL_1__LGX
 10
7.8898
 20
8.6732
 30
0.0000
  0
VERTEX
  8
K5DOUTL_1__LGX
 10
7.8829
 20
8.6653
 30
0.0000
  0
VERTEX
  8
K5DOUTL_1__LGX
 10
7.8829
 20
8.6496
 30
0.0000
  0
VERTEX
  8
K5DOUTL_1__LGX
 10
7.8898
 20
8.6417
 30
0.0000
  0
VERTEX
  8
K5DOUTL_1__LGX
 10
7.9104
 20
8.6417
 30
0.0000
  0
SEQEND
  0
POLYLINE
  8
K5DOUTL_1__LGX
 66
1
 10
0.0000
 20
0.0000
 30
0.0000
 40
0.0100
 41
0.0100
  0
VERTEX
  8
K5DOUTL_1__LGX
 10
7.9311
 20
8.6890
 30
0.0000
  0
VERTEX
  8
K5DOUTL_1__LGX
 10
7.9311
 20
8.6811
 30
0.0000
  0
VERTEX
  8
K5DOUTL_1__LGX
 10
7.9380
 20
8.6811
 30
0.0000
  0
VERTEX
  8
K5DOUTL_1__LGX
 10
7.9380
 20
8.6890
 30
0.0000
  0
VERTEX
  8
K5DOUTL_1__LGX
 10
7.9311
 20
8.6890
 30
0.0000
  0
SEQEND
  0
POLYLINE
  8
K5DOUTL_1__LGX
 66
1
 10
0.0000
 20
0.0000
 30
0.0000
 40
0.0100
 41
0.0100
  0
VERTEX
  8
K5DOUTL_1__LGX
 10
7.9311
 20
8.6653
 30
0.0000
  0
VERTEX
  8
K5DOUTL_1__LGX
 10
7.9380
 20
8.6653
 30
0.0000
  0
VERTEX
  8
K5DOUTL_1__LGX
 10
7.9380
 20
8.6417
 30
0.0000
  0
SEQEND
  0
POLYLINE
  8
K5DOUTL_1__LGX
 66
1
 10
0.0000
 20
0.0000
 30
0.0000
 40
0.0100
 41
0.0100
  0
VERTEX
  8
K5DOUTL_1__LGX
 10
7.9311
 20
8.6417
 30
0.0000
  0
VERTEX
  8
K5DOUTL_1__LGX
 10
7.9449
 20
8.6417
 30
0.0000
  0
SEQEND
  0
POLYLINE
  8
K5DOUTL_1__LGX
 66
1
 10
0.0000
 20
0.0000
 30
0.0000
 40
0.0100
 41
0.0100
  0
VERTEX
  8
K5DOUTL_1__LGX
 10
7.9656
 20
8.6417
 30
0.0000
  0
VERTEX
  8
K5DOUTL_1__LGX
 10
7.9656
 20
8.6732
 30
0.0000
  0
VERTEX
  8
K5DOUTL_1__LGX
 10
7.9656
 20
8.6653
 30
0.0000
  0
VERTEX
  8
K5DOUTL_1__LGX
 10
7.9724
 20
8.6732
 30
0.0000
  0
VERTEX
  8
K5DOUTL_1__LGX
 10
7.9862
 20
8.6732
 30
0.0000
  0
VERTEX
  8
K5DOUTL_1__LGX
 10
7.9931
 20
8.6653
 30
0.0000
  0
VERTEX
  8
K5DOUTL_1__LGX
 10
7.9931
 20
8.6417
 30
0.0000
  0
SEQEND
  0
POLYLINE
  8
K5DOUTL_1__LGX
 66
1
 10
0.0000
 20
0.0000
 30
0.0000
 40
0.0100
 41
0.0100
  0
VERTEX
  8
K5DOUTL_1__LGX
 10
7.7864
 20
8.7480
 30
0.0000
  0
VERTEX
  8
K5DOUTL_1__LGX
 10
7.7864
 20
8.7008
 30
0.0000
  0
VERTEX
  8
K5DOUTL_1__LGX
 10
7.7657
 20
8.7008
 30
0.0000
  0
VERTEX
  8
K5DOUTL_1__LGX
 10
7.7589
 20
8.7086
 30
0.0000
  0
VERTEX
  8
K5DOUTL_1__LGX
 10
7.7589
 20
8.7244
 30
0.0000
  0
VERTEX
  8
K5DOUTL_1__LGX
 10
7.7657
 20
8.7323
 30
0.0000
  0
VERTEX
  8
K5DOUTL_1__LGX
 10
7.7864
 20
8.7323
 30
0.0000
  0
SEQEND
  0
POLYLINE
  8
K5DOUTL_1__LGX
 66
1
 10
0.0000
 20
0.0000
 30
0.0000
 40
0.0100
 41
0.0100
  0
VERTEX
  8
K5DOUTL_1__LGX
 10
7.8002
 20
8.7008
 30
0.0000
  0
VERTEX
  8
K5DOUTL_1__LGX
 10
7.8002
 20
8.7323
 30
0.0000
  0
VERTEX
  8
K5DOUTL_1__LGX
 10
7.8002
 20
8.7165
 30
0.0000
  0
VERTEX
  8
K5DOUTL_1__LGX
 10
7.8140
 20
8.7323
 30
0.0000
  0
VERTEX
  8
K5DOUTL_1__LGX
 10
7.8278
 20
8.7323
 30
0.0000
  0
SEQEND
  0
POLYLINE
  8
K5DOUTL_1__LGX
 66
1
 10
0.0000
 20
0.0000
 30
0.0000
 40
0.0100
 41
0.0100
  0
VERTEX
  8
K5DOUTL_1__LGX
 10
7.8484
 20
8.7480
 30
0.0000
  0
VERTEX
  8
K5DOUTL_1__LGX
 10
7.8484
 20
8.7401
 30
0.0000
  0
VERTEX
  8
K5DOUTL_1__LGX
 10
7.8553
 20
8.7401
 30
0.0000
  0
VERTEX
  8
K5DOUTL_1__LGX
 10
7.8553
 20
8.7480
 30
0.0000
  0
VERTEX
  8
K5DOUTL_1__LGX
 10
7.8484
 20
8.7480
 30
0.0000
  0
SEQEND
  0
POLYLINE
  8
K5DOUTL_1__LGX
 66
1
 10
0.0000
 20
0.0000
 30
0.0000
 40
0.0100
 41
0.0100
  0
VERTEX
  8
K5DOUTL_1__LGX
 10
7.8484
 20
8.7244
 30
0.0000
  0
VERTEX
  8
K5DOUTL_1__LGX
 10
7.8553
 20
8.7244
 30
0.0000
  0
VERTEX
  8
K5DOUTL_1__LGX
 10
7.8553
 20
8.7008
 30
0.0000
  0
SEQEND
  0
POLYLINE
  8
K5DOUTL_1__LGX
 66
1
 10
0.0000
 20
0.0000
 30
0.0000
 40
0.0100
 41
0.0100
  0
VERTEX
  8
K5DOUTL_1__LGX
 10
7.8484
 20
8.7008
 30
0.0000
  0
VERTEX
  8
K5DOUTL_1__LGX
 10
7.8622
 20
8.7008
 30
0.0000
  0
SEQEND
  0
POLYLINE
  8
K5DOUTL_1__LGX
 66
1
 10
0.0000
 20
0.0000
 30
0.0000
 40
0.0100
 41
0.0100
  0
VERTEX
  8
K5DOUTL_1__LGX
 10
7.8898
 20
8.7008
 30
0.0000
  0
VERTEX
  8
K5DOUTL_1__LGX
 10
7.9035
 20
8.7008
 30
0.0000
  0
SEQEND
  0
POLYLINE
  8
K5DOUTL_1__LGX
 66
1
 10
0.0000
 20
0.0000
 30
0.0000
 40
0.0100
 41
0.0100
  0
VERTEX
  8
K5DOUTL_1__LGX
 10
7.8898
 20
8.7480
 30
0.0000
  0
VERTEX
  8
K5DOUTL_1__LGX
 10
7.8967
 20
8.7480
 30
0.0000
  0
VERTEX
  8
K5DOUTL_1__LGX
 10
7.8967
 20
8.7008
 30
0.0000
  0
SEQEND
  0
POLYLINE
  8
K5DOUTL_1__LGX
 66
1
 10
0.0000
 20
0.0000
 30
0.0000
 40
0.0100
 41
0.0100
  0
VERTEX
  8
K5DOUTL_1__LGX
 10
7.9311
 20
8.7008
 30
0.0000
  0
VERTEX
  8
K5DOUTL_1__LGX
 10
7.9449
 20
8.7008
 30
0.0000
  0
SEQEND
  0
POLYLINE
  8
K5DOUTL_1__LGX
 66
1
 10
0.0000
 20
0.0000
 30
0.0000
 40
0.0100
 41
0.0100
  0
VERTEX
  8
K5DOUTL_1__LGX
 10
7.9311
 20
8.7480
 30
0.0000
  0
VERTEX
  8
K5DOUTL_1__LGX
 10
7.9380
 20
8.7480
 30
0.0000
  0
VERTEX
  8
K5DOUTL_1__LGX
 10
7.9380
 20
8.7008
 30
0.0000
  0
SEQEND
  0
ENDSEC
  0
EOF
