  0
SECTION
  2
HEADER
  9
$ACADVER
  1
AC1015
  9
$ACADMAINTVER
 70
     6
  9
$DWGCODEPAGE
  3
ANSI_1252
  9
$INSBASE
 10
0.0
 20
0.0
 30
0.0
  9
$EXTMIN
 10
-0.204
 20
-0.204
 30
0.0
  9
$EXTMAX
 10
426.7039999999999
 20
128.204
 30
0.0
  9
$LIMMIN
 10
0.0
 20
0.0
  9
$LIMMAX
 10
426.4999999999999
 20
128.0
  9
$ORTHOMODE
 70
     0
  9
$REGENMODE
 70
     1
  9
$FILLMODE
 70
     1
  9
$QTEXTMODE
 70
     0
  9
$MIRRTEXT
 70
     1
  9
$LTSCALE
 40
23.4575
  9
$ATTMODE
 70
     1
  9
$TEXTSIZE
 40
0.2
  9
$TRACEWID
 40
0.05
  9
$TEXTSTYLE
  7
STANDARD
  9
$CLAYER
  8
0
  9
$CELTYPE
  6
ByLayer
  9
$CECOLOR
 62
   256
  9
$CELTSCALE
 40
1.0
  9
$DISPSILH
 70
     0
  9
$DIMSCALE
 40
1.0
  9
$DIMASZ
 40
5.0
  9
$DIMEXO
 40
2.665624999999999
  9
$DIMDLI
 40
16.207
  9
$DIMRND
 40
0.0
  9
$DIMDLE
 40
0.0
  9
$DIMEXE
 40
7.676999999999999
  9
$DIMTP
 40
0.01
  9
$DIMTM
 40
0.01
  9
$DIMTXT
 40
4.0
  9
$DIMCEN
 40
3.838499999999999
  9
$DIMTSZ
 40
0.0
  9
$DIMTOL
 70
     1
  9
$DIMLIM
 70
     0
  9
$DIMTIH
 70
     1
  9
$DIMTOH
 70
     1
  9
$DIMSE1
 70
     0
  9
$DIMSE2
 70
     0
  9
$DIMTAD
 70
     0
  9
$DIMZIN
 70
     0
  9
$DIMBLK
  1

  9
$DIMASO
 70
     1
  9
$DIMSHO
 70
     1
  9
$DIMPOST
  1

  9
$DIMAPOST
  1

  9
$DIMALT
 70
     0
  9
$DIMALTD
 70
     2
  9
$DIMALTF
 40
25.4
  9
$DIMLFAC
 40
1.0
  9
$DIMTOFL
 70
     0
  9
$DIMTVP
 40
0.0
  9
$DIMTIX
 70
     0
  9
$DIMSOXD
 70
     0
  9
$DIMSAH
 70
     0
  9
$DIMBLK1
  1

  9
$DIMBLK2
  1

  9
$DIMSTYLE
  2
STANDARD
  9
$DIMCLRD
 70
     0
  9
$DIMCLRE
 70
     0
  9
$DIMCLRT
 70
     0
  9
$DIMTFAC
 40
1.0
  9
$DIMGAP
 40
0.09
  9
$DIMJUST
 70
     0
  9
$DIMSD1
 70
     0
  9
$DIMSD2
 70
     0
  9
$DIMTOLJ
 70
     1
  9
$DIMTZIN
 70
     0
  9
$DIMALTZ
 70
     0
  9
$DIMALTTZ
 70
     0
  9
$DIMUPT
 70
     0
  9
$DIMDEC
 70
     4
  9
$DIMTDEC
 70
     4
  9
$DIMALTU
 70
     2
  9
$DIMALTTD
 70
     2
  9
$DIMTXSTY
  7
STANDARD
  9
$DIMAUNIT
 70
     0
  9
$DIMADEC
 70
     0
  9
$DIMALTRND
 40
0.0
  9
$DIMAZIN
 70
     0
  9
$DIMDSEP
 70
     0
  9
$DIMATFIT
 70
     3
  9
$DIMFRAC
 70
     0
  9
$DIMLDRBLK
  1

  9
$DIMLUNIT
 70
     2
  9
$DIMLWD
 70
     0
  9
$DIMLWE
 70
     0
  9
$DIMTMOVE
 70
     0
  9
$LUNITS
 70
     2
  9
$LUPREC
 70
     4
  9
$SKETCHINC
 40
0.1
  9
$FILLETRAD
 40
0.0
  9
$AUNITS
 70
     0
  9
$AUPREC
 70
     0
  9
$MENU
  1
acad
  9
$ELEVATION
 40
0.0
  9
$PELEVATION
 40
0.0
  9
$THICKNESS
 40
0.0
  9
$LIMCHECK
 70
     0
  9
$CHAMFERA
 40
0.0
  9
$CHAMFERB
 40
0.0
  9
$CHAMFERC
 40
0.0
  9
$CHAMFERD
 40
0.0
  9
$SKPOLY
 70
     0
  9
$TDCREATE
 40
2454273.694097396
  9
$TDUCREATE
 40
2454273.652430729
  9
$TDUPDATE
 40
2454273.697492395
  9
$TDUUPDATE
 40
2454273.655825728
  9
$TDINDWG
 40
0.0033344097
  9
$TDUSRTIMER
 40
0.0033344097
  9
$USRTIMER
 70
     1
  9
$ANGBASE
 50
0.0
  9
$ANGDIR
 70
     0
  9
$PDMODE
 70
     3
  9
$PDSIZE
 40
0.3125
  9
$PLINEWID
 40
0.0
  9
$SPLFRAME
 70
     0
  9
$SPLINETYPE
 70
     6
  9
$SPLINESEGS
 70
     8
  9
$HANDSEED
  5
157
  9
$SURFTAB1
 70
     6
  9
$SURFTAB2
 70
     6
  9
$SURFTYPE
 70
     6
  9
$SURFU
 70
     6
  9
$SURFV
 70
     6
  9
$UCSBASE
  2

  9
$UCSNAME
  2

  9
$UCSORG
 10
0.0
 20
0.0
 30
0.0
  9
$UCSXDIR
 10
1.0
 20
0.0
 30
0.0
  9
$UCSYDIR
 10
0.0
 20
1.0
 30
0.0
  9
$UCSORTHOREF
  2

  9
$UCSORTHOVIEW
 70
     0
  9
$UCSORGTOP
 10
0.0
 20
0.0
 30
0.0
  9
$UCSORGBOTTOM
 10
0.0
 20
0.0
 30
0.0
  9
$UCSORGLEFT
 10
0.0
 20
0.0
 30
0.0
  9
$UCSORGRIGHT
 10
0.0
 20
0.0
 30
0.0
  9
$UCSORGFRONT
 10
0.0
 20
0.0
 30
0.0
  9
$UCSORGBACK
 10
0.0
 20
0.0
 30
0.0
  9
$PUCSBASE
  2

  9
$PUCSNAME
  2

  9
$PUCSORG
 10
0.0
 20
0.0
 30
0.0
  9
$PUCSXDIR
 10
1.0
 20
0.0
 30
0.0
  9
$PUCSYDIR
 10
0.0
 20
1.0
 30
0.0
  9
$PUCSORTHOREF
  2

  9
$PUCSORTHOVIEW
 70
     0
  9
$PUCSORGTOP
 10
0.0
 20
0.0
 30
0.0
  9
$PUCSORGBOTTOM
 10
0.0
 20
0.0
 30
0.0
  9
$PUCSORGLEFT
 10
0.0
 20
0.0
 30
0.0
  9
$PUCSORGRIGHT
 10
0.0
 20
0.0
 30
0.0
  9
$PUCSORGFRONT
 10
0.0
 20
0.0
 30
0.0
  9
$PUCSORGBACK
 10
0.0
 20
0.0
 30
0.0
  9
$USERI1
 70
     0
  9
$USERI2
 70
     0
  9
$USERI3
 70
     0
  9
$USERI4
 70
     0
  9
$USERI5
 70
     0
  9
$USERR1
 40
0.0
  9
$USERR2
 40
0.0
  9
$USERR3
 40
0.0
  9
$USERR4
 40
0.0
  9
$USERR5
 40
0.0
  9
$WORLDVIEW
 70
     1
  9
$SHADEDGE
 70
     3
  9
$SHADEDIF
 70
    70
  9
$TILEMODE
 70
     1
  9
$MAXACTVP
 70
    16
  9
$PINSBASE
 10
0.0
 20
0.0
 30
0.0
  9
$PLIMCHECK
 70
     0
  9
$PEXTMIN
 10
1.000000000000000E+20
 20
1.000000000000000E+20
 30
1.000000000000000E+20
  9
$PEXTMAX
 10
-1.000000000000000E+20
 20
-1.000000000000000E+20
 30
-1.000000000000000E+20
  9
$PLIMMIN
 10
0.0
 20
0.0
  9
$PLIMMAX
 10
12.0
 20
9.0
  9
$UNITMODE
 70
     0
  9
$VISRETAIN
 70
     0
  9
$PLINEGEN
 70
     1
  9
$PSLTSCALE
 70
     0
  9
$TREEDEPTH
 70
  3020
  9
$CMLSTYLE
  2
Standard
  9
$CMLJUST
 70
     0
  9
$CMLSCALE
 40
1.0
  9
$PROXYGRAPHICS
 70
     0
  9
$MEASUREMENT
 70
     1
  9
$CELWEIGHT
370
    -1
  9
$ENDCAPS
280
     0
  9
$JOINSTYLE
280
     0
  9
$LWDISPLAY
290
     0
  9
$INSUNITS
 70
     4
  9
$HYPERLINKBASE
  1

  9
$STYLESHEET
  1

  9
$XEDIT
290
     1
  9
$CEPSNTYPE
380
     0
  9
$PSTYLEMODE
290
     1
  9
$FINGERPRINTGUID
  2

  9
$VERSIONGUID
  2
{B96799EC-8465-462A-A72A-430472837854}
  9
$EXTNAMES
290
     1
  9
$PSVPSCALE
 40
0.0
  9
$OLESTARTUP
290
     0
  0
ENDSEC
  0
SECTION
  2
CLASSES
  0
CLASS
  1
ACDBDICTIONARYWDFLT
  2
AcDbDictionaryWithDefault
  3
AutoCAD 2000
 90
        0
280
     0
281
     0
  0
CLASS
  1
ACDBPLACEHOLDER
  2
AcDbPlaceHolder
  3
AutoCAD 2000
 90
        0
280
     0
281
     0
  0
CLASS
  1
LAYOUT
  2
AcDbLayout
  3
AutoCAD 2000
 90
        0
280
     0
281
     0
  0
CLASS
  1
LWPOLYLINE
  2
AcDbPolyline
  3
AutoCAD 2000
 90
    32768
280
     0
281
     1
  0
CLASS
  1
IMAGE
  2
AcDbRasterImage
  3
ISM
 90
    32895
280
     0
281
     1
  0
CLASS
  1
OLE2FRAME
  2
AcDbOle2Frame
  3
AutoCAD 2000
 90
    32768
280
     0
281
     1
  0
CLASS
  1
HATCH
  2
AcDbHatch
  3
AutoCAD 2000
 90
    32768
280
     0
281
     1
  0
CLASS
  1
DICTIONARYVAR
  2
AcDbDictionaryVar
  3
AutoCAD 2000
 90
    32768
280
     0
281
     0
  0
CLASS
  1
RASTERVARIABLES
  2
AcDbRasterVariables
  3
ISM
 90
    32768
280
     0
281
     0
  0
CLASS
  1
IMAGEDEF
  2
AcDbRasterImageDef
  3
ISM
 90
    32768
280
     0
281
     0
  0
CLASS
  1
IMAGEDEF_REACTOR
  2
AcDbRasterImageDefReactor
  3
ISM
 90
    32769
280
     0
281
     0
  0
CLASS
  1
IDBUFFER
  2
AcDbIdBuffer
  3
AutoCAD 2000
 90
    32768
280
     0
281
     0
  0
CLASS
  1
SPATIAL_FILTER
  2
AcDbSpatialFilter
  3
AutoCAD 2000
 90
    32768
280
     0
281
     0
  0
CLASS
  1
XRECORD
  2
AcDbXrecord
  3
AutoCAD 2000
 90
    32768
280
     0
281
     0
  0
CLASS
  1
SORTENTSTABLE
  2
AcDbSortentsTable
  3
AutoCAD 2000
 90
    32768
280
     0
281
     0
  0
CLASS
  1
LAYER_INDEX
  2
AcDbLayerIndex
  3
AutoCAD 2000
 90
    32768
280
     0
281
     0
  0
CLASS
  1
SPATIAL_INDEX
  2
AcDbSpatialIndex
  3
AutoCAD 2000
 90
    32768
280
     0
281
     0
  0
CLASS
  1
OBJECT_PTR
  2
CAseDLPNTableRecord
  3
ASE-LPNTableRecord
 90
    32769
280
     0
281
     0
  0
CLASS
  1
PLOTSETTINGS
  2
AcDbPlotSettings
  3
AutoCAD 2000
 90
    32768
280
     0
281
     0
  0
CLASS
  1
VBA_PROJECT
  2
AcDbVbaProject
  3
acadvba
 90
    32768
280
     0
281
     0
  0
CLASS
  1
WIPEOUT
  2
AcDbWipeout
  3
WipeOut|AutoCAD Express Tool|expresstools@autodesk.com
 90
    32895
280
     0
281
     1
  0
CLASS
  1
WIPEOUTVARIABLES
  2
AcDbWipeoutVariables
  3
WipeOut|AutoCAD Express Tool|expresstools@autodesk.com
 90
    32768
280
     0
281
     0
  0
CLASS
  1
RTEXT
  2
RText
  3
RText|AutoCAD Express Tool|expresstools@autodesk.com
 90
    32768
280
     0
281
     1
  0
CLASS
  1
ARCALIGNEDTEXT
  2
AcDbArcAlignedText
  3
ATEXT|AutoCAD Express Tool|expresstools@autodesk.com
 90
    32768
280
     0
281
     1
  0
ENDSEC
  0
SECTION
  2
TABLES
  0
TABLE
  2
VPORT
  5
18
330
0
100
AcDbSymbolTable
 70
     2
  0
VPORT
  5
156
330
18
100
AcDbSymbolTableRecord
100
AcDbViewportTableRecord
  2
*Active
 70
     0
 10
0.0
 20
0.0
 11
1.0
 21
1.0
 12
213.2500009930226
 22
64.0000002980232
 13
0.0
 23
0.0
 14
1.0
 24
1.0
 15
0.0
 25
0.0
 16
0.0
 26
0.0
 36
1.0
 17
0.0
 27
0.0
 37
0.0
 40
503.8079014292082
 41
1.701459034792368
 42
50.0
 43
0.0
 44
0.0
 50
0.0
 51
0.0
 71
     0
 72
   100
 73
     1
 74
     1
 75
     0
 76
     0
 77
     0
 78
     0
281
     0
 65
     0
110
0.0
120
0.0
130
0.0
111
1.0
121
0.0
131
0.0
112
0.0
122
1.0
132
0.0
 79
     0
146
0.0
  0
ENDTAB
  0
TABLE
  2
LTYPE
  5
13
330
0
100
AcDbSymbolTable
 70
     2
  0
LTYPE
  5
14
330
13
100
AcDbSymbolTableRecord
100
AcDbLinetypeTableRecord
  2
ByBlock
 70
     0
  3

 72
    65
 73
     0
 40
0.0
  0
LTYPE
  5
15
330
13
100
AcDbSymbolTableRecord
100
AcDbLinetypeTableRecord
  2
ByLayer
 70
     0
  3

 72
    65
 73
     0
 40
0.0
  0
LTYPE
  5
6
330
13
100
AcDbSymbolTableRecord
100
AcDbLinetypeTableRecord
  2
CONTINUOUS
 70
     0
  3
Solid line
 72
    65
 73
     0
 40
0.0
  0
LTYPE
  5
30
330
13
100
AcDbSymbolTableRecord
100
AcDbLinetypeTableRecord
  2
DASHED
 70
     0
  3
- - - - - - - - - - - - - - - - - - - -
 72
    65
 73
     2
 40
0.2
 49
0.1
 74
     0
 49
-0.1
 74
     0
  0
ENDTAB
  0
TABLE
  2
LAYER
  5
F
330
0
100
AcDbSymbolTable
 70
     2
  0
LAYER
  5
4
330
F
100
AcDbSymbolTableRecord
100
AcDbLayerTableRecord
  2
0
 70
     0
 62
     7
  6
CONTINUOUS
370
    -3
390
5
  0
LAYER
  5
25
330
F
100
AcDbSymbolTableRecord
100
AcDbLayerTableRecord
  2
MDRL
 70
     0
 62
     7
  6
CONTINUOUS
370
    -3
390
5
  0
ENDTAB
  0
TABLE
  2
STYLE
  5
10
330
0
100
AcDbSymbolTable
 70
     1
  0
STYLE
  5
11
330
10
100
AcDbSymbolTableRecord
100
AcDbTextStyleTableRecord
  2
STANDARD
 70
     0
 40
0.0
 41
0.8
 50
0.0
 71
     0
 42
0.2
  3
txt
  4

  0
ENDTAB
  0
TABLE
  2
VIEW
  5
16
330
0
100
AcDbSymbolTable
 70
     0
  0
ENDTAB
  0
TABLE
  2
UCS
  5
17
330
0
100
AcDbSymbolTable
 70
     0
  0
ENDTAB
  0
TABLE
  2
APPID
  5
1A
330
0
100
AcDbSymbolTable
 70
     2
  0
APPID
  5
1B
330
1A
100
AcDbSymbolTableRecord
100
AcDbRegAppTableRecord
  2
ACAD
 70
     0
  0
APPID
  5
154
330
1A
100
AcDbSymbolTableRecord
100
AcDbRegAppTableRecord
  2
DCO15
 70
     0
  0
ENDTAB
  0
TABLE
  2
DIMSTYLE
  5
1C
330
0
100
AcDbSymbolTable
 70
     1
100
AcDbDimStyleTable
 71
     1
340
1D
  0
DIMSTYLE
105
1D
330
1C
100
AcDbSymbolTableRecord
100
AcDbDimStyleTableRecord
  2
STANDARD
 70
     0
 41
5.0
 47
0.01
 48
0.01
 71
     1
 78
     8
140
4.0
271
     2
272
     2
284
     8
340
11
  0
ENDTAB
  0
TABLE
  2
BLOCK_RECORD
  5
1
330
0
100
AcDbSymbolTable
 70
     0
  0
BLOCK_RECORD
  5
2
330
1
100
AcDbSymbolTableRecord
100
AcDbBlockTableRecord
  2
*MODEL_SPACE
340
8
  0
BLOCK_RECORD
  5
B
330
1
100
AcDbSymbolTableRecord
100
AcDbBlockTableRecord
  2
*PAPER_SPACE
340
E
  0
ENDTAB
  0
ENDSEC
  0
SECTION
  2
BLOCKS
  0
BLOCK
  5
3
330
2
100
AcDbEntity
  8
0
100
AcDbBlockBegin
  2
*MODEL_SPACE
 70
     0
 10
0.0
 20
0.0
 30
0.0
  3
*MODEL_SPACE
  1

  0
ENDBLK
  5
7
330
2
100
AcDbEntity
  8
0
100
AcDbBlockEnd
  0
BLOCK
  5
C
330
B
100
AcDbEntity
 67
     1
  8
0
100
AcDbBlockBegin
  2
*PAPER_SPACE
 70
     0
 10
0.0
 20
0.0
 30
0.0
  3
*PAPER_SPACE
  1

  0
ENDBLK
  5
D
330
B
100
AcDbEntity
 67
     1
  8
0
100
AcDbBlockEnd
  0
ENDSEC
  0
SECTION
  2
ENTITIES
  0
LWPOLYLINE
  5
24
330
2
100
AcDbEntity
  8
MDRL
  6
Continuous
 62
     1
100
AcDbPolyline
 90
        2
 70
     0
 43
0.408
 10
0.0
 20
128.0
 10
426.4999999999999
 20
128.0
  0
LINE
  5
26
330
2
100
AcDbEntity
  8
0
  6
Continuous
 62
     7
100
AcDbLine
 10
0.0
 20
128.0
 30
0.0
 11
426.4999999999999
 21
128.0
 31
0.0
  0
LWPOLYLINE
  5
27
330
2
100
AcDbEntity
  8
MDRL
  6
Continuous
 62
     1
100
AcDbPolyline
 90
        2
 70
     0
 43
0.408
 10
402.0
 20
0.0
 10
31.5
 20
0.0
  0
LWPOLYLINE
  5
28
330
2
100
AcDbEntity
  8
MDRL
  6
Continuous
 62
     1
100
AcDbPolyline
 90
        2
 70
     0
 43
0.408
 10
0.0
 20
0.0
 10
0.0
 20
128.0
  0
LINE
  5
29
330
2
100
AcDbEntity
  8
0
  6
Continuous
 62
     7
100
AcDbLine
 10
0.0
 20
0.0
 30
0.0
 11
0.0
 21
128.0
 31
0.0
  0
CIRCLE
  5
2A
330
2
100
AcDbEntity
  8
MDRL
  6
Continuous
 62
     1
100
AcDbCircle
 10
13.25
 20
19.5
 30
0.0
 40
4.5
  0
LWPOLYLINE
  5
2B
330
2
100
AcDbEntity
  8
MDRL
  6
Continuous
 62
     1
100
AcDbPolyline
 90
        2
 70
     0
 43
0.408
 10
15.5
 20
0.0
 10
0.0
 20
0.0
  0
LWPOLYLINE
  5
2C
330
2
100
AcDbEntity
  8
MDRL
  6
Continuous
 62
     1
100
AcDbPolyline
 90
        2
 70
     0
 43
0.408
 10
31.5
 20
0.0
 10
31.5
 20
8.25
  0
LWPOLYLINE
  5
2D
330
2
100
AcDbEntity
  8
MDRL
  6
Continuous
 62
     1
100
AcDbPolyline
 90
        2
 70
     0
 43
0.408
 10
15.5
 20
8.25
 10
15.5
 20
0.0
  0
LWPOLYLINE
  5
2E
330
2
100
AcDbEntity
  8
MDRL
  6
Continuous
 62
     1
100
AcDbPolyline
 90
        2
 70
     0
 43
0.408
 10
31.5
 20
8.25
 10
15.5
 20
8.25
  0
CIRCLE
  5
2F
330
2
100
AcDbEntity
  8
MDRL
  6
DASHED
 62
     1
100
AcDbCircle
 10
38.25
 20
11.75
 30
0.0
 40
2.0
  0
CIRCLE
  5
31
330
2
100
AcDbEntity
  8
MDRL
  6
Continuous
 62
     1
100
AcDbCircle
 10
38.25
 20
11.75
 30
0.0
 40
1.25
  0
CIRCLE
  5
32
330
2
100
AcDbEntity
  8
MDRL
  6
Continuous
 62
     1
100
AcDbCircle
 10
54.5
 20
19.5
 30
0.0
 40
1.5
  0
CIRCLE
  5
33
330
2
100
AcDbEntity
  8
MDRL
  6
Continuous
 62
     1
100
AcDbCircle
 10
59.5
 20
19.5
 30
0.0
 40
1.5
  0
CIRCLE
  5
34
330
2
100
AcDbEntity
  8
MDRL
  6
Continuous
 62
     1
100
AcDbCircle
 10
13.25
 20
51.5
 30
0.0
 40
4.5
  0
CIRCLE
  5
35
330
2
100
AcDbEntity
  8
MDRL
  6
Continuous
 62
     1
100
AcDbCircle
 10
13.25
 20
35.5
 30
0.0
 40
4.5
  0
CIRCLE
  5
36
330
2
100
AcDbEntity
  8
MDRL
  6
Continuous
 62
     1
100
AcDbCircle
 10
54.5
 20
35.5
 30
0.0
 40
1.5
  0
CIRCLE
  5
37
330
2
100
AcDbEntity
  8
MDRL
  6
Continuous
 62
     1
100
AcDbCircle
 10
59.5
 20
35.5
 30
0.0
 40
1.5
  0
CIRCLE
  5
38
330
2
100
AcDbEntity
  8
MDRL
  6
DASHED
 62
     1
100
AcDbCircle
 10
38.25
 20
59.25
 30
0.0
 40
2.0
  0
CIRCLE
  5
39
330
2
100
AcDbEntity
  8
MDRL
  6
Continuous
 62
     1
100
AcDbCircle
 10
38.25
 20
59.25
 30
0.0
 40
1.25
  0
CIRCLE
  5
3A
330
2
100
AcDbEntity
  8
MDRL
  6
Continuous
 62
     1
100
AcDbCircle
 10
54.5
 20
51.5
 30
0.0
 40
1.5
  0
CIRCLE
  5
3B
330
2
100
AcDbEntity
  8
MDRL
  6
Continuous
 62
     1
100
AcDbCircle
 10
59.5
 20
51.5
 30
0.0
 40
1.5
  0
CIRCLE
  5
3C
330
2
100
AcDbEntity
  8
MDRL
  6
Continuous
 62
     1
100
AcDbCircle
 10
207.0
 20
24.25
 30
0.0
 40
1.5
  0
CIRCLE
  5
3D
330
2
100
AcDbEntity
  8
MDRL
  6
Continuous
 62
     1
100
AcDbCircle
 10
94.50000000000001
 20
24.25
 30
0.0
 40
1.5
  0
CIRCLE
  5
3E
330
2
100
AcDbEntity
  8
MDRL
  6
Continuous
 62
     1
100
AcDbCircle
 10
99.50000000000001
 20
24.25
 30
0.0
 40
1.5
  0
CIRCLE
  5
3F
330
2
100
AcDbEntity
  8
MDRL
  6
Continuous
 62
     1
100
AcDbCircle
 10
192.0
 20
24.25
 30
0.0
 40
1.5
  0
CIRCLE
  5
40
330
2
100
AcDbEntity
  8
MDRL
  6
Continuous
 62
     1
100
AcDbCircle
 10
94.50000000000001
 20
15.25
 30
0.0
 40
1.5
  0
CIRCLE
  5
41
330
2
100
AcDbEntity
  8
MDRL
  6
Continuous
 62
     1
100
AcDbCircle
 10
99.50000000000001
 20
15.25
 30
0.0
 40
1.5
  0
CIRCLE
  5
42
330
2
100
AcDbEntity
  8
MDRL
  6
Continuous
 62
     1
100
AcDbCircle
 10
94.50000000000001
 20
10.74999999999999
 30
0.0
 40
1.5
  0
CIRCLE
  5
43
330
2
100
AcDbEntity
  8
MDRL
  6
Continuous
 62
     1
100
AcDbCircle
 10
99.50000000000001
 20
10.74999999999999
 30
0.0
 40
1.5
  0
CIRCLE
  5
44
330
2
100
AcDbEntity
  8
MDRL
  6
Continuous
 62
     1
100
AcDbCircle
 10
94.50000000000001
 20
19.75
 30
0.0
 40
1.5
  0
CIRCLE
  5
45
330
2
100
AcDbEntity
  8
MDRL
  6
Continuous
 62
     1
100
AcDbCircle
 10
99.50000000000001
 20
19.75
 30
0.0
 40
1.5
  0
CIRCLE
  5
46
330
2
100
AcDbEntity
  8
MDRL
  6
Continuous
 62
     1
100
AcDbCircle
 10
127.0
 20
12.75
 30
0.0
 40
1.5
  0
CIRCLE
  5
47
330
2
100
AcDbEntity
  8
MDRL
  6
Continuous
 62
     1
100
AcDbCircle
 10
132.0
 20
12.75
 30
0.0
 40
1.5
  0
CIRCLE
  5
48
330
2
100
AcDbEntity
  8
MDRL
  6
Continuous
 62
     1
100
AcDbCircle
 10
127.0
 20
17.75
 30
0.0
 40
1.5
  0
CIRCLE
  5
49
330
2
100
AcDbEntity
  8
MDRL
  6
Continuous
 62
     1
100
AcDbCircle
 10
132.0
 20
17.75
 30
0.0
 40
1.5
  0
CIRCLE
  5
4A
330
2
100
AcDbEntity
  8
MDRL
  6
DASHED
 62
     1
100
AcDbCircle
 10
150.75
 20
11.75
 30
0.0
 40
2.0
  0
CIRCLE
  5
4B
330
2
100
AcDbEntity
  8
MDRL
  6
Continuous
 62
     1
100
AcDbCircle
 10
150.75
 20
11.75
 30
0.0
 40
1.25
  0
CIRCLE
  5
4C
330
2
100
AcDbEntity
  8
MDRL
  6
Continuous
 62
     1
100
AcDbCircle
 10
149.5
 20
19.5
 30
0.0
 40
1.5
  0
CIRCLE
  5
4D
330
2
100
AcDbEntity
  8
MDRL
  6
Continuous
 62
     1
100
AcDbCircle
 10
173.2499999999999
 20
19.5
 30
0.0
 40
3.25
  0
CIRCLE
  5
4E
330
2
100
AcDbEntity
  8
MDRL
  6
Continuous
 62
     1
100
AcDbCircle
 10
207.0
 20
14.25
 30
0.0
 40
1.5
  0
CIRCLE
  5
4F
330
2
100
AcDbEntity
  8
MDRL
  6
Continuous
 62
     1
100
AcDbCircle
 10
192.0
 20
14.25
 30
0.0
 40
1.5
  0
CIRCLE
  5
50
330
2
100
AcDbEntity
  8
MDRL
  6
DASHED
 62
     1
100
AcDbCircle
 10
198.25
 20
11.75
 30
0.0
 40
2.0
  0
CIRCLE
  5
51
330
2
100
AcDbEntity
  8
MDRL
  6
Continuous
 62
     1
100
AcDbCircle
 10
198.25
 20
11.75
 30
0.0
 40
1.25
  0
CIRCLE
  5
52
330
2
100
AcDbEntity
  8
MDRL
  6
Continuous
 62
     1
100
AcDbCircle
 10
192.0
 20
19.25
 30
0.0
 40
1.5
  0
CIRCLE
  5
53
330
2
100
AcDbEntity
  8
MDRL
  6
Continuous
 62
     1
100
AcDbCircle
 10
207.0
 20
19.25
 30
0.0
 40
1.5
  0
CIRCLE
  5
54
330
2
100
AcDbEntity
  8
MDRL
  6
Continuous
 62
     1
100
AcDbCircle
 10
99.50000000000001
 20
33.25
 30
0.0
 40
1.5
  0
CIRCLE
  5
55
330
2
100
AcDbEntity
  8
MDRL
  6
Continuous
 62
     1
100
AcDbCircle
 10
94.50000000000001
 20
33.25
 30
0.0
 40
1.5
  0
CIRCLE
  5
56
330
2
100
AcDbEntity
  8
MDRL
  6
Continuous
 62
     1
100
AcDbCircle
 10
94.50000000000001
 20
28.75
 30
0.0
 40
1.5
  0
CIRCLE
  5
57
330
2
100
AcDbEntity
  8
MDRL
  6
Continuous
 62
     1
100
AcDbCircle
 10
99.50000000000001
 20
28.75
 30
0.0
 40
1.5
  0
CIRCLE
  5
58
330
2
100
AcDbEntity
  8
MDRL
  6
Continuous
 62
     1
100
AcDbCircle
 10
94.50000000000001
 20
37.75
 30
0.0
 40
1.5
  0
CIRCLE
  5
59
330
2
100
AcDbEntity
  8
MDRL
  6
Continuous
 62
     1
100
AcDbCircle
 10
94.50000000000001
 20
42.25
 30
0.0
 40
1.5
  0
CIRCLE
  5
5A
330
2
100
AcDbEntity
  8
MDRL
  6
Continuous
 62
     1
100
AcDbCircle
 10
99.50000000000001
 20
37.75
 30
0.0
 40
1.5
  0
CIRCLE
  5
5B
330
2
100
AcDbEntity
  8
MDRL
  6
Continuous
 62
     1
100
AcDbCircle
 10
99.50000000000001
 20
42.25
 30
0.0
 40
1.5
  0
CIRCLE
  5
5C
330
2
100
AcDbEntity
  8
MDRL
  6
Continuous
 62
     1
100
AcDbCircle
 10
127.0
 20
33.0
 30
0.0
 40
1.5
  0
CIRCLE
  5
5D
330
2
100
AcDbEntity
  8
MDRL
  6
Continuous
 62
     1
100
AcDbCircle
 10
132.0
 20
33.0
 30
0.0
 40
1.5
  0
CIRCLE
  5
5E
330
2
100
AcDbEntity
  8
MDRL
  6
Continuous
 62
     1
100
AcDbCircle
 10
127.0
 20
38.0
 30
0.0
 40
1.5
  0
CIRCLE
  5
5F
330
2
100
AcDbEntity
  8
MDRL
  6
Continuous
 62
     1
100
AcDbCircle
 10
132.0
 20
38.0
 30
0.0
 40
1.5
  0
CIRCLE
  5
60
330
2
100
AcDbEntity
  8
MDRL
  6
Continuous
 62
     1
100
AcDbCircle
 10
94.50000000000001
 20
46.74999999999999
 30
0.0
 40
1.5
  0
CIRCLE
  5
61
330
2
100
AcDbEntity
  8
MDRL
  6
Continuous
 62
     1
100
AcDbCircle
 10
94.50000000000001
 20
51.25
 30
0.0
 40
1.5
  0
CIRCLE
  5
62
330
2
100
AcDbEntity
  8
MDRL
  6
Continuous
 62
     1
100
AcDbCircle
 10
99.50000000000001
 20
46.74999999999999
 30
0.0
 40
1.5
  0
CIRCLE
  5
63
330
2
100
AcDbEntity
  8
MDRL
  6
Continuous
 62
     1
100
AcDbCircle
 10
99.50000000000001
 20
51.25
 30
0.0
 40
1.5
  0
CIRCLE
  5
64
330
2
100
AcDbEntity
  8
MDRL
  6
Continuous
 62
     1
100
AcDbCircle
 10
94.50000000000001
 20
60.25
 30
0.0
 40
1.5
  0
CIRCLE
  5
65
330
2
100
AcDbEntity
  8
MDRL
  6
Continuous
 62
     1
100
AcDbCircle
 10
94.50000000000001
 20
55.75
 30
0.0
 40
1.5
  0
CIRCLE
  5
66
330
2
100
AcDbEntity
  8
MDRL
  6
Continuous
 62
     1
100
AcDbCircle
 10
99.50000000000001
 20
60.25
 30
0.0
 40
1.5
  0
CIRCLE
  5
67
330
2
100
AcDbEntity
  8
MDRL
  6
Continuous
 62
     1
100
AcDbCircle
 10
99.50000000000001
 20
55.75
 30
0.0
 40
1.5
  0
CIRCLE
  5
68
330
2
100
AcDbEntity
  8
MDRL
  6
Continuous
 62
     1
100
AcDbCircle
 10
127.0
 20
53.25
 30
0.0
 40
1.5
  0
CIRCLE
  5
69
330
2
100
AcDbEntity
  8
MDRL
  6
Continuous
 62
     1
100
AcDbCircle
 10
132.0
 20
53.25
 30
0.0
 40
1.5
  0
CIRCLE
  5
6A
330
2
100
AcDbEntity
  8
MDRL
  6
Continuous
 62
     1
100
AcDbCircle
 10
127.0
 20
58.25
 30
0.0
 40
1.5
  0
CIRCLE
  5
6B
330
2
100
AcDbEntity
  8
MDRL
  6
Continuous
 62
     1
100
AcDbCircle
 10
132.0
 20
58.25
 30
0.0
 40
1.5
  0
CIRCLE
  5
6C
330
2
100
AcDbEntity
  8
MDRL
  6
Continuous
 62
     1
100
AcDbCircle
 10
173.2499999999999
 20
35.5
 30
0.0
 40
3.25
  0
CIRCLE
  5
6D
330
2
100
AcDbEntity
  8
MDRL
  6
Continuous
 62
     1
100
AcDbCircle
 10
149.5
 20
35.5
 30
0.0
 40
1.5
  0
CIRCLE
  5
6E
330
2
100
AcDbEntity
  8
MDRL
  6
Continuous
 62
     1
100
AcDbCircle
 10
192.0
 20
29.25
 30
0.0
 40
1.5
  0
CIRCLE
  5
6F
330
2
100
AcDbEntity
  8
MDRL
  6
Continuous
 62
     1
100
AcDbCircle
 10
207.0
 20
29.25
 30
0.0
 40
1.5
  0
CIRCLE
  5
70
330
2
100
AcDbEntity
  8
MDRL
  6
Continuous
 62
     1
100
AcDbCircle
 10
192.0
 20
41.74999999999999
 30
0.0
 40
1.5
  0
CIRCLE
  5
71
330
2
100
AcDbEntity
  8
MDRL
  6
Continuous
 62
     1
100
AcDbCircle
 10
207.0
 20
41.74999999999999
 30
0.0
 40
1.5
  0
CIRCLE
  5
72
330
2
100
AcDbEntity
  8
MDRL
  6
Continuous
 62
     1
100
AcDbCircle
 10
173.2499999999999
 20
51.5
 30
0.0
 40
3.25
  0
CIRCLE
  5
73
330
2
100
AcDbEntity
  8
MDRL
  6
Continuous
 62
     1
100
AcDbCircle
 10
149.5
 20
51.5
 30
0.0
 40
1.5
  0
CIRCLE
  5
74
330
2
100
AcDbEntity
  8
MDRL
  6
DASHED
 62
     1
100
AcDbCircle
 10
150.75
 20
59.25
 30
0.0
 40
2.0
  0
CIRCLE
  5
75
330
2
100
AcDbEntity
  8
MDRL
  6
Continuous
 62
     1
100
AcDbCircle
 10
150.75
 20
59.25
 30
0.0
 40
1.25
  0
CIRCLE
  5
76
330
2
100
AcDbEntity
  8
MDRL
  6
Continuous
 62
     1
100
AcDbCircle
 10
192.0
 20
46.74999999999999
 30
0.0
 40
1.5
  0
CIRCLE
  5
77
330
2
100
AcDbEntity
  8
MDRL
  6
Continuous
 62
     1
100
AcDbCircle
 10
192.0
 20
51.75
 30
0.0
 40
1.5
  0
CIRCLE
  5
78
330
2
100
AcDbEntity
  8
MDRL
  6
Continuous
 62
     1
100
AcDbCircle
 10
207.0
 20
46.74999999999999
 30
0.0
 40
1.5
  0
CIRCLE
  5
79
330
2
100
AcDbEntity
  8
MDRL
  6
Continuous
 62
     1
100
AcDbCircle
 10
207.0
 20
51.75
 30
0.0
 40
1.5
  0
CIRCLE
  5
7A
330
2
100
AcDbEntity
  8
MDRL
  6
DASHED
 62
     1
100
AcDbCircle
 10
198.25
 20
59.25
 30
0.0
 40
2.0
  0
CIRCLE
  5
7B
330
2
100
AcDbEntity
  8
MDRL
  6
Continuous
 62
     1
100
AcDbCircle
 10
192.0
 20
56.75
 30
0.0
 40
1.5
  0
CIRCLE
  5
7C
330
2
100
AcDbEntity
  8
MDRL
  6
Continuous
 62
     1
100
AcDbCircle
 10
198.25
 20
59.25
 30
0.0
 40
1.25
  0
CIRCLE
  5
7D
330
2
100
AcDbEntity
  8
MDRL
  6
Continuous
 62
     1
100
AcDbCircle
 10
207.0
 20
56.75
 30
0.0
 40
1.5
  0
CIRCLE
  5
7E
330
2
100
AcDbEntity
  8
MDRL
  6
Continuous
 62
     1
100
AcDbCircle
 10
13.25
 20
108.4999999999999
 30
0.0
 40
4.5
  0
CIRCLE
  5
7F
330
2
100
AcDbEntity
  8
MDRL
  6
Continuous
 62
     1
100
AcDbCircle
 10
13.25
 20
92.5
 30
0.0
 40
4.5
  0
CIRCLE
  5
80
330
2
100
AcDbEntity
  8
MDRL
  6
Continuous
 62
     1
100
AcDbCircle
 10
13.25
 20
76.5
 30
0.0
 40
4.5
  0
CIRCLE
  5
81
330
2
100
AcDbEntity
  8
MDRL
  6
DASHED
 62
     1
100
AcDbCircle
 10
38.25
 20
68.75
 30
0.0
 40
2.0
  0
CIRCLE
  5
82
330
2
100
AcDbEntity
  8
MDRL
  6
Continuous
 62
     1
100
AcDbCircle
 10
38.25
 20
68.75
 30
0.0
 40
1.25
  0
CIRCLE
  5
83
330
2
100
AcDbEntity
  8
MDRL
  6
Continuous
 62
     1
100
AcDbCircle
 10
54.5
 20
76.5
 30
0.0
 40
1.5
  0
CIRCLE
  5
84
330
2
100
AcDbEntity
  8
MDRL
  6
Continuous
 62
     1
100
AcDbCircle
 10
59.5
 20
76.5
 30
0.0
 40
1.5
  0
CIRCLE
  5
85
330
2
100
AcDbEntity
  8
MDRL
  6
Continuous
 62
     1
100
AcDbCircle
 10
54.5
 20
92.5
 30
0.0
 40
1.5
  0
CIRCLE
  5
86
330
2
100
AcDbEntity
  8
MDRL
  6
Continuous
 62
     1
100
AcDbCircle
 10
59.5
 20
92.5
 30
0.0
 40
1.5
  0
CIRCLE
  5
87
330
2
100
AcDbEntity
  8
MDRL
  6
DASHED
 62
     1
100
AcDbCircle
 10
38.25
 20
116.25
 30
0.0
 40
2.0
  0
CIRCLE
  5
88
330
2
100
AcDbEntity
  8
MDRL
  6
Continuous
 62
     1
100
AcDbCircle
 10
38.25
 20
116.25
 30
0.0
 40
1.25
  0
CIRCLE
  5
89
330
2
100
AcDbEntity
  8
MDRL
  6
Continuous
 62
     1
100
AcDbCircle
 10
59.5
 20
108.4999999999999
 30
0.0
 40
1.5
  0
CIRCLE
  5
8A
330
2
100
AcDbEntity
  8
MDRL
  6
Continuous
 62
     1
100
AcDbCircle
 10
54.5
 20
108.4999999999999
 30
0.0
 40
1.5
  0
CIRCLE
  5
8B
330
2
100
AcDbEntity
  8
MDRL
  6
Continuous
 62
     1
100
AcDbCircle
 10
207.0
 20
103.75
 30
0.0
 40
1.5
  0
CIRCLE
  5
8C
330
2
100
AcDbEntity
  8
MDRL
  6
Continuous
 62
     1
100
AcDbCircle
 10
192.0
 20
103.75
 30
0.0
 40
1.5
  0
CIRCLE
  5
8D
330
2
100
AcDbEntity
  8
MDRL
  6
Continuous
 62
     1
100
AcDbCircle
 10
94.50000000000001
 20
103.75
 30
0.0
 40
1.5
  0
CIRCLE
  5
8E
330
2
100
AcDbEntity
  8
MDRL
  6
Continuous
 62
     1
100
AcDbCircle
 10
99.50000000000001
 20
103.75
 30
0.0
 40
1.5
  0
CIRCLE
  5
8F
330
2
100
AcDbEntity
  8
MDRL
  6
Continuous
 62
     1
100
AcDbCircle
 10
94.50000000000001
 20
67.75
 30
0.0
 40
1.5
  0
CIRCLE
  5
90
330
2
100
AcDbEntity
  8
MDRL
  6
Continuous
 62
     1
100
AcDbCircle
 10
94.50000000000001
 20
72.25
 30
0.0
 40
1.5
  0
CIRCLE
  5
91
330
2
100
AcDbEntity
  8
MDRL
  6
Continuous
 62
     1
100
AcDbCircle
 10
99.50000000000001
 20
67.75
 30
0.0
 40
1.5
  0
CIRCLE
  5
92
330
2
100
AcDbEntity
  8
MDRL
  6
Continuous
 62
     1
100
AcDbCircle
 10
99.50000000000001
 20
72.25
 30
0.0
 40
1.5
  0
CIRCLE
  5
93
330
2
100
AcDbEntity
  8
MDRL
  6
Continuous
 62
     1
100
AcDbCircle
 10
94.50000000000001
 20
76.75
 30
0.0
 40
1.5
  0
CIRCLE
  5
94
330
2
100
AcDbEntity
  8
MDRL
  6
Continuous
 62
     1
100
AcDbCircle
 10
94.50000000000001
 20
81.25
 30
0.0
 40
1.5
  0
CIRCLE
  5
95
330
2
100
AcDbEntity
  8
MDRL
  6
Continuous
 62
     1
100
AcDbCircle
 10
99.50000000000001
 20
76.75
 30
0.0
 40
1.5
  0
CIRCLE
  5
96
330
2
100
AcDbEntity
  8
MDRL
  6
Continuous
 62
     1
100
AcDbCircle
 10
99.50000000000001
 20
81.25
 30
0.0
 40
1.5
  0
CIRCLE
  5
97
330
2
100
AcDbEntity
  8
MDRL
  6
Continuous
 62
     1
100
AcDbCircle
 10
127.0
 20
74.75
 30
0.0
 40
1.5
  0
CIRCLE
  5
98
330
2
100
AcDbEntity
  8
MDRL
  6
Continuous
 62
     1
100
AcDbCircle
 10
132.0
 20
74.75
 30
0.0
 40
1.5
  0
CIRCLE
  5
99
330
2
100
AcDbEntity
  8
MDRL
  6
Continuous
 62
     1
100
AcDbCircle
 10
127.0
 20
69.75
 30
0.0
 40
1.5
  0
CIRCLE
  5
9A
330
2
100
AcDbEntity
  8
MDRL
  6
Continuous
 62
     1
100
AcDbCircle
 10
132.0
 20
69.75
 30
0.0
 40
1.5
  0
CIRCLE
  5
9B
330
2
100
AcDbEntity
  8
MDRL
  6
Continuous
 62
     1
100
AcDbCircle
 10
94.50000000000001
 20
94.74999999999999
 30
0.0
 40
1.5
  0
CIRCLE
  5
9C
330
2
100
AcDbEntity
  8
MDRL
  6
Continuous
 62
     1
100
AcDbCircle
 10
99.50000000000001
 20
94.74999999999999
 30
0.0
 40
1.5
  0
CIRCLE
  5
9D
330
2
100
AcDbEntity
  8
MDRL
  6
Continuous
 62
     1
100
AcDbCircle
 10
94.50000000000001
 20
90.25
 30
0.0
 40
1.5
  0
CIRCLE
  5
9E
330
2
100
AcDbEntity
  8
MDRL
  6
Continuous
 62
     1
100
AcDbCircle
 10
94.50000000000001
 20
85.75000000000001
 30
0.0
 40
1.5
  0
CIRCLE
  5
9F
330
2
100
AcDbEntity
  8
MDRL
  6
Continuous
 62
     1
100
AcDbCircle
 10
99.50000000000001
 20
90.25
 30
0.0
 40
1.5
  0
CIRCLE
  5
A0
330
2
100
AcDbEntity
  8
MDRL
  6
Continuous
 62
     1
100
AcDbCircle
 10
99.50000000000001
 20
85.75000000000001
 30
0.0
 40
1.5
  0
CIRCLE
  5
A1
330
2
100
AcDbEntity
  8
MDRL
  6
Continuous
 62
     1
100
AcDbCircle
 10
94.50000000000001
 20
99.25
 30
0.0
 40
1.5
  0
CIRCLE
  5
A2
330
2
100
AcDbEntity
  8
MDRL
  6
Continuous
 62
     1
100
AcDbCircle
 10
99.50000000000001
 20
99.25
 30
0.0
 40
1.5
  0
CIRCLE
  5
A3
330
2
100
AcDbEntity
  8
MDRL
  6
Continuous
 62
     1
100
AcDbCircle
 10
127.0
 20
95.0
 30
0.0
 40
1.5
  0
CIRCLE
  5
A4
330
2
100
AcDbEntity
  8
MDRL
  6
Continuous
 62
     1
100
AcDbCircle
 10
132.0
 20
95.0
 30
0.0
 40
1.5
  0
CIRCLE
  5
A5
330
2
100
AcDbEntity
  8
MDRL
  6
Continuous
 62
     1
100
AcDbCircle
 10
127.0
 20
90.0
 30
0.0
 40
1.5
  0
CIRCLE
  5
A6
330
2
100
AcDbEntity
  8
MDRL
  6
Continuous
 62
     1
100
AcDbCircle
 10
132.0
 20
90.0
 30
0.0
 40
1.5
  0
CIRCLE
  5
A7
330
2
100
AcDbEntity
  8
MDRL
  6
Continuous
 62
     1
100
AcDbCircle
 10
173.2499999999999
 20
76.5
 30
0.0
 40
3.25
  0
CIRCLE
  5
A8
330
2
100
AcDbEntity
  8
MDRL
  6
DASHED
 62
     1
100
AcDbCircle
 10
150.75
 20
68.75
 30
0.0
 40
2.0
  0
CIRCLE
  5
A9
330
2
100
AcDbEntity
  8
MDRL
  6
Continuous
 62
     1
100
AcDbCircle
 10
150.75
 20
68.75
 30
0.0
 40
1.25
  0
CIRCLE
  5
AA
330
2
100
AcDbEntity
  8
MDRL
  6
Continuous
 62
     1
100
AcDbCircle
 10
149.5
 20
76.5
 30
0.0
 40
1.5
  0
CIRCLE
  5
AB
330
2
100
AcDbEntity
  8
MDRL
  6
DASHED
 62
     1
100
AcDbCircle
 10
198.25
 20
68.75
 30
0.0
 40
2.0
  0
CIRCLE
  5
AC
330
2
100
AcDbEntity
  8
MDRL
  6
Continuous
 62
     1
100
AcDbCircle
 10
192.0
 20
71.25
 30
0.0
 40
1.5
  0
CIRCLE
  5
AD
330
2
100
AcDbEntity
  8
MDRL
  6
Continuous
 62
     1
100
AcDbCircle
 10
198.25
 20
68.75
 30
0.0
 40
1.25
  0
CIRCLE
  5
AE
330
2
100
AcDbEntity
  8
MDRL
  6
Continuous
 62
     1
100
AcDbCircle
 10
207.0
 20
71.25
 30
0.0
 40
1.5
  0
CIRCLE
  5
AF
330
2
100
AcDbEntity
  8
MDRL
  6
Continuous
 62
     1
100
AcDbCircle
 10
192.0
 20
76.25
 30
0.0
 40
1.5
  0
CIRCLE
  5
B0
330
2
100
AcDbEntity
  8
MDRL
  6
Continuous
 62
     1
100
AcDbCircle
 10
192.0
 20
81.25
 30
0.0
 40
1.5
  0
CIRCLE
  5
B1
330
2
100
AcDbEntity
  8
MDRL
  6
Continuous
 62
     1
100
AcDbCircle
 10
207.0
 20
76.25
 30
0.0
 40
1.5
  0
CIRCLE
  5
B2
330
2
100
AcDbEntity
  8
MDRL
  6
Continuous
 62
     1
100
AcDbCircle
 10
207.0
 20
81.25
 30
0.0
 40
1.5
  0
CIRCLE
  5
B3
330
2
100
AcDbEntity
  8
MDRL
  6
Continuous
 62
     1
100
AcDbCircle
 10
173.2499999999999
 20
92.5
 30
0.0
 40
3.25
  0
CIRCLE
  5
B4
330
2
100
AcDbEntity
  8
MDRL
  6
Continuous
 62
     1
100
AcDbCircle
 10
149.5
 20
92.5
 30
0.0
 40
1.5
  0
CIRCLE
  5
B5
330
2
100
AcDbEntity
  8
MDRL
  6
Continuous
 62
     1
100
AcDbCircle
 10
192.0
 20
86.25
 30
0.0
 40
1.5
  0
CIRCLE
  5
B6
330
2
100
AcDbEntity
  8
MDRL
  6
Continuous
 62
     1
100
AcDbCircle
 10
207.0
 20
86.25
 30
0.0
 40
1.5
  0
CIRCLE
  5
B7
330
2
100
AcDbEntity
  8
MDRL
  6
Continuous
 62
     1
100
AcDbCircle
 10
192.0
 20
98.75
 30
0.0
 40
1.5
  0
CIRCLE
  5
B8
330
2
100
AcDbEntity
  8
MDRL
  6
Continuous
 62
     1
100
AcDbCircle
 10
207.0
 20
98.75
 30
0.0
 40
1.5
  0
CIRCLE
  5
B9
330
2
100
AcDbEntity
  8
MDRL
  6
Continuous
 62
     1
100
AcDbCircle
 10
94.50000000000001
 20
112.7499999999999
 30
0.0
 40
1.5
  0
CIRCLE
  5
BA
330
2
100
AcDbEntity
  8
MDRL
  6
Continuous
 62
     1
100
AcDbCircle
 10
99.50000000000001
 20
112.7499999999999
 30
0.0
 40
1.5
  0
CIRCLE
  5
BB
330
2
100
AcDbEntity
  8
MDRL
  6
Continuous
 62
     1
100
AcDbCircle
 10
94.50000000000001
 20
108.25
 30
0.0
 40
1.5
  0
CIRCLE
  5
BC
330
2
100
AcDbEntity
  8
MDRL
  6
Continuous
 62
     1
100
AcDbCircle
 10
99.50000000000001
 20
108.25
 30
0.0
 40
1.5
  0
CIRCLE
  5
BD
330
2
100
AcDbEntity
  8
MDRL
  6
Continuous
 62
     1
100
AcDbCircle
 10
94.50000000000001
 20
117.25
 30
0.0
 40
1.5
  0
CIRCLE
  5
BE
330
2
100
AcDbEntity
  8
MDRL
  6
Continuous
 62
     1
100
AcDbCircle
 10
99.50000000000001
 20
117.25
 30
0.0
 40
1.5
  0
CIRCLE
  5
BF
330
2
100
AcDbEntity
  8
MDRL
  6
Continuous
 62
     1
100
AcDbCircle
 10
127.0
 20
115.25
 30
0.0
 40
1.5
  0
CIRCLE
  5
C0
330
2
100
AcDbEntity
  8
MDRL
  6
Continuous
 62
     1
100
AcDbCircle
 10
132.0
 20
115.25
 30
0.0
 40
1.5
  0
CIRCLE
  5
C1
330
2
100
AcDbEntity
  8
MDRL
  6
Continuous
 62
     1
100
AcDbCircle
 10
127.0
 20
110.25
 30
0.0
 40
1.5
  0
CIRCLE
  5
C2
330
2
100
AcDbEntity
  8
MDRL
  6
Continuous
 62
     1
100
AcDbCircle
 10
132.0
 20
110.25
 30
0.0
 40
1.5
  0
CIRCLE
  5
C3
330
2
100
AcDbEntity
  8
MDRL
  6
Continuous
 62
     1
100
AcDbCircle
 10
149.5
 20
108.4999999999999
 30
0.0
 40
1.5
  0
CIRCLE
  5
C4
330
2
100
AcDbEntity
  8
MDRL
  6
Continuous
 62
     1
100
AcDbCircle
 10
173.2499999999999
 20
108.4999999999999
 30
0.0
 40
3.25
  0
CIRCLE
  5
C5
330
2
100
AcDbEntity
  8
MDRL
  6
DASHED
 62
     1
100
AcDbCircle
 10
150.75
 20
116.25
 30
0.0
 40
2.0
  0
CIRCLE
  5
C6
330
2
100
AcDbEntity
  8
MDRL
  6
Continuous
 62
     1
100
AcDbCircle
 10
150.75
 20
116.25
 30
0.0
 40
1.25
  0
CIRCLE
  5
C7
330
2
100
AcDbEntity
  8
MDRL
  6
Continuous
 62
     1
100
AcDbCircle
 10
207.0
 20
113.7499999999999
 30
0.0
 40
1.5
  0
CIRCLE
  5
C8
330
2
100
AcDbEntity
  8
MDRL
  6
Continuous
 62
     1
100
AcDbCircle
 10
192.0
 20
113.7499999999999
 30
0.0
 40
1.5
  0
CIRCLE
  5
C9
330
2
100
AcDbEntity
  8
MDRL
  6
Continuous
 62
     1
100
AcDbCircle
 10
192.0
 20
108.75
 30
0.0
 40
1.5
  0
CIRCLE
  5
CA
330
2
100
AcDbEntity
  8
MDRL
  6
Continuous
 62
     1
100
AcDbCircle
 10
207.0
 20
108.75
 30
0.0
 40
1.5
  0
CIRCLE
  5
CB
330
2
100
AcDbEntity
  8
MDRL
  6
DASHED
 62
     1
100
AcDbCircle
 10
198.25
 20
116.25
 30
0.0
 40
2.0
  0
CIRCLE
  5
CC
330
2
100
AcDbEntity
  8
MDRL
  6
Continuous
 62
     1
100
AcDbCircle
 10
198.25
 20
116.25
 30
0.0
 40
1.25
  0
LINE
  5
CD
330
2
100
AcDbEntity
  8
0
  6
Continuous
 62
     7
100
AcDbLine
 10
426.4999999999999
 20
0.0
 30
0.0
 11
426.4999999999999
 21
128.0
 31
0.0
  0
LWPOLYLINE
  5
CE
330
2
100
AcDbEntity
  8
MDRL
  6
Continuous
 62
     1
100
AcDbPolyline
 90
        2
 70
     0
 43
0.408
 10
426.4999999999999
 20
128.0
 10
426.4999999999999
 20
0.0
  0
CIRCLE
  5
CF
330
2
100
AcDbEntity
  8
MDRL
  6
Continuous
 62
     1
100
AcDbCircle
 10
292.0
 20
25.5
 30
0.0
 40
1.5
  0
CIRCLE
  5
D0
330
2
100
AcDbEntity
  8
MDRL
  6
Continuous
 62
     1
100
AcDbCircle
 10
267.0
 20
24.25
 30
0.0
 40
1.5
  0
CIRCLE
  5
D1
330
2
100
AcDbEntity
  8
MDRL
  6
Continuous
 62
     1
100
AcDbCircle
 10
252.0
 20
24.25
 30
0.0
 40
1.5
  0
CIRCLE
  5
D2
330
2
100
AcDbEntity
  8
MDRL
  6
Continuous
 62
     1
100
AcDbCircle
 10
237.0
 20
24.25
 30
0.0
 40
1.5
  0
CIRCLE
  5
D3
330
2
100
AcDbEntity
  8
MDRL
  6
Continuous
 62
     1
100
AcDbCircle
 10
222.0
 20
24.25
 30
0.0
 40
1.5
  0
CIRCLE
  5
D4
330
2
100
AcDbEntity
  8
MDRL
  6
Continuous
 62
     1
100
AcDbCircle
 10
237.0
 20
14.25
 30
0.0
 40
1.5
  0
CIRCLE
  5
D5
330
2
100
AcDbEntity
  8
MDRL
  6
Continuous
 62
     1
100
AcDbCircle
 10
222.0
 20
14.25
 30
0.0
 40
1.5
  0
CIRCLE
  5
D6
330
2
100
AcDbEntity
  8
MDRL
  6
Continuous
 62
     1
100
AcDbCircle
 10
222.0
 20
19.25
 30
0.0
 40
1.5
  0
CIRCLE
  5
D7
330
2
100
AcDbEntity
  8
MDRL
  6
Continuous
 62
     1
100
AcDbCircle
 10
237.0
 20
19.25
 30
0.0
 40
1.5
  0
CIRCLE
  5
D8
330
2
100
AcDbEntity
  8
MDRL
  6
Continuous
 62
     1
100
AcDbCircle
 10
267.0
 20
14.25
 30
0.0
 40
1.5
  0
CIRCLE
  5
D9
330
2
100
AcDbEntity
  8
MDRL
  6
Continuous
 62
     1
100
AcDbCircle
 10
252.0
 20
14.25
 30
0.0
 40
1.5
  0
CIRCLE
  5
DA
330
2
100
AcDbEntity
  8
MDRL
  6
DASHED
 62
     1
100
AcDbCircle
 10
275.7499999999999
 20
11.75
 30
0.0
 40
2.0
  0
CIRCLE
  5
DB
330
2
100
AcDbEntity
  8
MDRL
  6
Continuous
 62
     1
100
AcDbCircle
 10
275.7499999999999
 20
11.75
 30
0.0
 40
1.25
  0
CIRCLE
  5
DC
330
2
100
AcDbEntity
  8
MDRL
  6
Continuous
 62
     1
100
AcDbCircle
 10
252.0
 20
19.25
 30
0.0
 40
1.5
  0
CIRCLE
  5
DD
330
2
100
AcDbEntity
  8
MDRL
  6
Continuous
 62
     1
100
AcDbCircle
 10
267.0
 20
19.25
 30
0.0
 40
1.5
  0
CIRCLE
  5
DE
330
2
100
AcDbEntity
  8
MDRL
  6
Continuous
 62
     1
100
AcDbCircle
 10
292.0
 20
13.5
 30
0.0
 40
1.5
  0
CIRCLE
  5
DF
330
2
100
AcDbEntity
  8
MDRL
  6
DASHED
 62
     1
100
AcDbCircle
 10
298.2499999999999
 20
11.75
 30
0.0
 40
2.0
  0
CIRCLE
  5
E0
330
2
100
AcDbEntity
  8
MDRL
  6
Continuous
 62
     1
100
AcDbCircle
 10
298.2499999999999
 20
11.75
 30
0.0
 40
1.25
  0
CIRCLE
  5
E1
330
2
100
AcDbEntity
  8
MDRL
  6
Continuous
 62
     1
100
AcDbCircle
 10
292.0
 20
17.5
 30
0.0
 40
1.5
  0
CIRCLE
  5
E2
330
2
100
AcDbEntity
  8
MDRL
  6
Continuous
 62
     1
100
AcDbCircle
 10
292.0
 20
21.49999999999999
 30
0.0
 40
1.5
  0
CIRCLE
  5
E3
330
2
100
AcDbEntity
  8
MDRL
  6
Continuous
 62
     1
100
AcDbCircle
 10
222.0
 20
29.25
 30
0.0
 40
1.5
  0
CIRCLE
  5
E4
330
2
100
AcDbEntity
  8
MDRL
  6
Continuous
 62
     1
100
AcDbCircle
 10
237.0
 20
29.25
 30
0.0
 40
1.5
  0
CIRCLE
  5
E5
330
2
100
AcDbEntity
  8
MDRL
  6
Continuous
 62
     1
100
AcDbCircle
 10
222.0
 20
41.74999999999999
 30
0.0
 40
1.5
  0
CIRCLE
  5
E6
330
2
100
AcDbEntity
  8
MDRL
  6
Continuous
 62
     1
100
AcDbCircle
 10
237.0
 20
41.74999999999999
 30
0.0
 40
1.5
  0
CIRCLE
  5
E7
330
2
100
AcDbEntity
  8
MDRL
  6
Continuous
 62
     1
100
AcDbCircle
 10
252.0
 20
29.25
 30
0.0
 40
1.5
  0
CIRCLE
  5
E8
330
2
100
AcDbEntity
  8
MDRL
  6
Continuous
 62
     1
100
AcDbCircle
 10
267.0
 20
29.25
 30
0.0
 40
1.5
  0
CIRCLE
  5
E9
330
2
100
AcDbEntity
  8
MDRL
  6
Continuous
 62
     1
100
AcDbCircle
 10
252.0
 20
41.74999999999999
 30
0.0
 40
1.5
  0
CIRCLE
  5
EA
330
2
100
AcDbEntity
  8
MDRL
  6
Continuous
 62
     1
100
AcDbCircle
 10
267.0
 20
41.74999999999999
 30
0.0
 40
1.5
  0
CIRCLE
  5
EB
330
2
100
AcDbEntity
  8
MDRL
  6
Continuous
 62
     1
100
AcDbCircle
 10
222.0
 20
46.74999999999999
 30
0.0
 40
1.5
  0
CIRCLE
  5
EC
330
2
100
AcDbEntity
  8
MDRL
  6
Continuous
 62
     1
100
AcDbCircle
 10
222.0
 20
51.75
 30
0.0
 40
1.5
  0
CIRCLE
  5
ED
330
2
100
AcDbEntity
  8
MDRL
  6
Continuous
 62
     1
100
AcDbCircle
 10
237.0
 20
46.74999999999999
 30
0.0
 40
1.5
  0
CIRCLE
  5
EE
330
2
100
AcDbEntity
  8
MDRL
  6
Continuous
 62
     1
100
AcDbCircle
 10
237.0
 20
51.75
 30
0.0
 40
1.5
  0
CIRCLE
  5
EF
330
2
100
AcDbEntity
  8
MDRL
  6
Continuous
 62
     1
100
AcDbCircle
 10
222.0
 20
56.75
 30
0.0
 40
1.5
  0
CIRCLE
  5
F0
330
2
100
AcDbEntity
  8
MDRL
  6
Continuous
 62
     1
100
AcDbCircle
 10
237.0
 20
56.75
 30
0.0
 40
1.5
  0
CIRCLE
  5
F1
330
2
100
AcDbEntity
  8
MDRL
  6
Continuous
 62
     1
100
AcDbCircle
 10
252.0
 20
46.74999999999999
 30
0.0
 40
1.5
  0
CIRCLE
  5
F2
330
2
100
AcDbEntity
  8
MDRL
  6
Continuous
 62
     1
100
AcDbCircle
 10
252.0
 20
51.75
 30
0.0
 40
1.5
  0
CIRCLE
  5
F3
330
2
100
AcDbEntity
  8
MDRL
  6
Continuous
 62
     1
100
AcDbCircle
 10
267.0
 20
46.74999999999999
 30
0.0
 40
1.5
  0
CIRCLE
  5
F4
330
2
100
AcDbEntity
  8
MDRL
  6
Continuous
 62
     1
100
AcDbCircle
 10
267.0
 20
51.75
 30
0.0
 40
1.5
  0
CIRCLE
  5
F5
330
2
100
AcDbEntity
  8
MDRL
  6
Continuous
 62
     1
100
AcDbCircle
 10
252.0
 20
56.75
 30
0.0
 40
1.5
  0
CIRCLE
  5
F6
330
2
100
AcDbEntity
  8
MDRL
  6
DASHED
 62
     1
100
AcDbCircle
 10
275.7499999999999
 20
59.25
 30
0.0
 40
2.0
  0
CIRCLE
  5
F7
330
2
100
AcDbEntity
  8
MDRL
  6
Continuous
 62
     1
100
AcDbCircle
 10
275.7499999999999
 20
59.25
 30
0.0
 40
1.25
  0
CIRCLE
  5
F8
330
2
100
AcDbEntity
  8
MDRL
  6
Continuous
 62
     1
100
AcDbCircle
 10
267.0
 20
56.75
 30
0.0
 40
1.5
  0
CIRCLE
  5
F9
330
2
100
AcDbEntity
  8
MDRL
  6
Continuous
 62
     1
100
AcDbCircle
 10
292.0
 20
45.49999999999999
 30
0.0
 40
1.5
  0
CIRCLE
  5
FA
330
2
100
AcDbEntity
  8
MDRL
  6
Continuous
 62
     1
100
AcDbCircle
 10
292.0
 20
33.5
 30
0.0
 40
1.5
  0
CIRCLE
  5
FB
330
2
100
AcDbEntity
  8
MDRL
  6
Continuous
 62
     1
100
AcDbCircle
 10
292.0
 20
29.5
 30
0.0
 40
1.5
  0
CIRCLE
  5
FC
330
2
100
AcDbEntity
  8
MDRL
  6
Continuous
 62
     1
100
AcDbCircle
 10
292.0
 20
37.5
 30
0.0
 40
1.5
  0
CIRCLE
  5
FD
330
2
100
AcDbEntity
  8
MDRL
  6
Continuous
 62
     1
100
AcDbCircle
 10
292.0
 20
41.5
 30
0.0
 40
1.5
  0
CIRCLE
  5
FE
330
2
100
AcDbEntity
  8
MDRL
  6
Continuous
 62
     1
100
AcDbCircle
 10
292.0
 20
53.5
 30
0.0
 40
1.5
  0
CIRCLE
  5
FF
330
2
100
AcDbEntity
  8
MDRL
  6
Continuous
 62
     1
100
AcDbCircle
 10
292.0
 20
49.5
 30
0.0
 40
1.5
  0
CIRCLE
  5
100
330
2
100
AcDbEntity
  8
MDRL
  6
DASHED
 62
     1
100
AcDbCircle
 10
298.2499999999999
 20
59.25
 30
0.0
 40
2.0
  0
CIRCLE
  5
101
330
2
100
AcDbEntity
  8
MDRL
  6
Continuous
 62
     1
100
AcDbCircle
 10
292.0
 20
57.5
 30
0.0
 40
1.5
  0
CIRCLE
  5
102
330
2
100
AcDbEntity
  8
MDRL
  6
Continuous
 62
     1
100
AcDbCircle
 10
298.2499999999999
 20
59.25
 30
0.0
 40
1.25
  0
CIRCLE
  5
103
330
2
100
AcDbEntity
  8
MDRL
  6
Continuous
 62
     1
100
AcDbCircle
 10
413.25
 20
19.5
 30
0.0
 40
4.5
  0
LWPOLYLINE
  5
104
330
2
100
AcDbEntity
  8
MDRL
  6
Continuous
 62
     1
100
AcDbPolyline
 90
        2
 70
     0
 43
0.408
 10
418.0
 20
8.25
 10
402.0
 20
8.25
  0
LWPOLYLINE
  5
105
330
2
100
AcDbEntity
  8
MDRL
  6
Continuous
 62
     1
100
AcDbPolyline
 90
        2
 70
     0
 43
0.408
 10
402.0
 20
8.25
 10
402.0
 20
0.0
  0
CIRCLE
  5
106
330
2
100
AcDbEntity
  8
MDRL
  6
DASHED
 62
     1
100
AcDbCircle
 10
368.25
 20
11.75
 30
0.0
 40
2.0
  0
CIRCLE
  5
107
330
2
100
AcDbEntity
  8
MDRL
  6
Continuous
 62
     1
100
AcDbCircle
 10
368.25
 20
11.75
 30
0.0
 40
1.25
  0
CIRCLE
  5
108
330
2
100
AcDbEntity
  8
MDRL
  6
Continuous
 62
     1
100
AcDbCircle
 10
369.5
 20
19.5
 30
0.0
 40
1.5
  0
LWPOLYLINE
  5
109
330
2
100
AcDbEntity
  8
MDRL
  6
Continuous
 62
     1
100
AcDbPolyline
 90
        2
 70
     0
 43
0.408
 10
418.0
 20
0.0
 10
418.0
 20
8.25
  0
LWPOLYLINE
  5
10A
330
2
100
AcDbEntity
  8
MDRL
  6
Continuous
 62
     1
100
AcDbPolyline
 90
        2
 70
     0
 43
0.408
 10
426.4999999999999
 20
0.0
 10
418.0
 20
0.0
  0
CIRCLE
  5
10B
330
2
100
AcDbEntity
  8
MDRL
  6
Continuous
 62
     1
100
AcDbCircle
 10
413.25
 20
35.5
 30
0.0
 40
4.5
  0
CIRCLE
  5
10C
330
2
100
AcDbEntity
  8
MDRL
  6
Continuous
 62
     1
100
AcDbCircle
 10
413.25
 20
51.5
 30
0.0
 40
4.5
  0
CIRCLE
  5
10D
330
2
100
AcDbEntity
  8
MDRL
  6
Continuous
 62
     1
100
AcDbCircle
 10
369.5
 20
35.5
 30
0.0
 40
1.5
  0
CIRCLE
  5
10E
330
2
100
AcDbEntity
  8
MDRL
  6
Continuous
 62
     1
100
AcDbCircle
 10
369.5
 20
51.5
 30
0.0
 40
1.5
  0
CIRCLE
  5
10F
330
2
100
AcDbEntity
  8
MDRL
  6
DASHED
 62
     1
100
AcDbCircle
 10
368.25
 20
59.25
 30
0.0
 40
2.0
  0
CIRCLE
  5
110
330
2
100
AcDbEntity
  8
MDRL
  6
Continuous
 62
     1
100
AcDbCircle
 10
368.25
 20
59.25
 30
0.0
 40
1.25
  0
CIRCLE
  5
111
330
2
100
AcDbEntity
  8
MDRL
  6
Continuous
 62
     1
100
AcDbCircle
 10
267.0
 20
103.75
 30
0.0
 40
1.5
  0
CIRCLE
  5
112
330
2
100
AcDbEntity
  8
MDRL
  6
Continuous
 62
     1
100
AcDbCircle
 10
252.0
 20
103.75
 30
0.0
 40
1.5
  0
CIRCLE
  5
113
330
2
100
AcDbEntity
  8
MDRL
  6
Continuous
 62
     1
100
AcDbCircle
 10
237.0
 20
103.75
 30
0.0
 40
1.5
  0
CIRCLE
  5
114
330
2
100
AcDbEntity
  8
MDRL
  6
Continuous
 62
     1
100
AcDbCircle
 10
222.0
 20
103.75
 30
0.0
 40
1.5
  0
CIRCLE
  5
115
330
2
100
AcDbEntity
  8
MDRL
  6
Continuous
 62
     1
100
AcDbCircle
 10
222.0
 20
71.25
 30
0.0
 40
1.5
  0
CIRCLE
  5
116
330
2
100
AcDbEntity
  8
MDRL
  6
Continuous
 62
     1
100
AcDbCircle
 10
237.0
 20
71.25
 30
0.0
 40
1.5
  0
CIRCLE
  5
117
330
2
100
AcDbEntity
  8
MDRL
  6
Continuous
 62
     1
100
AcDbCircle
 10
222.0
 20
76.25
 30
0.0
 40
1.5
  0
CIRCLE
  5
118
330
2
100
AcDbEntity
  8
MDRL
  6
Continuous
 62
     1
100
AcDbCircle
 10
222.0
 20
81.25
 30
0.0
 40
1.5
  0
CIRCLE
  5
119
330
2
100
AcDbEntity
  8
MDRL
  6
Continuous
 62
     1
100
AcDbCircle
 10
237.0
 20
76.25
 30
0.0
 40
1.5
  0
CIRCLE
  5
11A
330
2
100
AcDbEntity
  8
MDRL
  6
Continuous
 62
     1
100
AcDbCircle
 10
237.0
 20
81.25
 30
0.0
 40
1.5
  0
CIRCLE
  5
11B
330
2
100
AcDbEntity
  8
MDRL
  6
Continuous
 62
     1
100
AcDbCircle
 10
252.0
 20
71.25
 30
0.0
 40
1.5
  0
CIRCLE
  5
11C
330
2
100
AcDbEntity
  8
MDRL
  6
DASHED
 62
     1
100
AcDbCircle
 10
275.7499999999999
 20
68.75
 30
0.0
 40
2.0
  0
CIRCLE
  5
11D
330
2
100
AcDbEntity
  8
MDRL
  6
Continuous
 62
     1
100
AcDbCircle
 10
275.7499999999999
 20
68.75
 30
0.0
 40
1.25
  0
CIRCLE
  5
11E
330
2
100
AcDbEntity
  8
MDRL
  6
Continuous
 62
     1
100
AcDbCircle
 10
267.0
 20
71.25
 30
0.0
 40
1.5
  0
CIRCLE
  5
11F
330
2
100
AcDbEntity
  8
MDRL
  6
Continuous
 62
     1
100
AcDbCircle
 10
252.0
 20
76.25
 30
0.0
 40
1.5
  0
CIRCLE
  5
120
330
2
100
AcDbEntity
  8
MDRL
  6
Continuous
 62
     1
100
AcDbCircle
 10
252.0
 20
81.25
 30
0.0
 40
1.5
  0
CIRCLE
  5
121
330
2
100
AcDbEntity
  8
MDRL
  6
Continuous
 62
     1
100
AcDbCircle
 10
267.0
 20
76.25
 30
0.0
 40
1.5
  0
CIRCLE
  5
122
330
2
100
AcDbEntity
  8
MDRL
  6
Continuous
 62
     1
100
AcDbCircle
 10
267.0
 20
81.25
 30
0.0
 40
1.5
  0
CIRCLE
  5
123
330
2
100
AcDbEntity
  8
MDRL
  6
Continuous
 62
     1
100
AcDbCircle
 10
222.0
 20
86.25
 30
0.0
 40
1.5
  0
CIRCLE
  5
124
330
2
100
AcDbEntity
  8
MDRL
  6
Continuous
 62
     1
100
AcDbCircle
 10
237.0
 20
86.25
 30
0.0
 40
1.5
  0
CIRCLE
  5
125
330
2
100
AcDbEntity
  8
MDRL
  6
Continuous
 62
     1
100
AcDbCircle
 10
222.0
 20
98.75
 30
0.0
 40
1.5
  0
CIRCLE
  5
126
330
2
100
AcDbEntity
  8
MDRL
  6
Continuous
 62
     1
100
AcDbCircle
 10
237.0
 20
98.75
 30
0.0
 40
1.5
  0
CIRCLE
  5
127
330
2
100
AcDbEntity
  8
MDRL
  6
Continuous
 62
     1
100
AcDbCircle
 10
252.0
 20
86.25
 30
0.0
 40
1.5
  0
CIRCLE
  5
128
330
2
100
AcDbEntity
  8
MDRL
  6
Continuous
 62
     1
100
AcDbCircle
 10
267.0
 20
86.25
 30
0.0
 40
1.5
  0
CIRCLE
  5
129
330
2
100
AcDbEntity
  8
MDRL
  6
Continuous
 62
     1
100
AcDbCircle
 10
252.0
 20
98.75
 30
0.0
 40
1.5
  0
CIRCLE
  5
12A
330
2
100
AcDbEntity
  8
MDRL
  6
Continuous
 62
     1
100
AcDbCircle
 10
267.0
 20
98.75
 30
0.0
 40
1.5
  0
CIRCLE
  5
12B
330
2
100
AcDbEntity
  8
MDRL
  6
Continuous
 62
     1
100
AcDbCircle
 10
292.0
 20
74.5
 30
0.0
 40
1.5
  0
CIRCLE
  5
12C
330
2
100
AcDbEntity
  8
MDRL
  6
DASHED
 62
     1
100
AcDbCircle
 10
298.2499999999999
 20
68.75
 30
0.0
 40
2.0
  0
CIRCLE
  5
12D
330
2
100
AcDbEntity
  8
MDRL
  6
Continuous
 62
     1
100
AcDbCircle
 10
292.0
 20
70.5
 30
0.0
 40
1.5
  0
CIRCLE
  5
12E
330
2
100
AcDbEntity
  8
MDRL
  6
Continuous
 62
     1
100
AcDbCircle
 10
298.2499999999999
 20
68.75
 30
0.0
 40
1.25
  0
CIRCLE
  5
12F
330
2
100
AcDbEntity
  8
MDRL
  6
Continuous
 62
     1
100
AcDbCircle
 10
292.0
 20
78.5
 30
0.0
 40
1.5
  0
CIRCLE
  5
130
330
2
100
AcDbEntity
  8
MDRL
  6
Continuous
 62
     1
100
AcDbCircle
 10
292.0
 20
82.5
 30
0.0
 40
1.5
  0
CIRCLE
  5
131
330
2
100
AcDbEntity
  8
MDRL
  6
Continuous
 62
     1
100
AcDbCircle
 10
292.0
 20
94.50000000000001
 30
0.0
 40
1.5
  0
CIRCLE
  5
132
330
2
100
AcDbEntity
  8
MDRL
  6
Continuous
 62
     1
100
AcDbCircle
 10
292.0
 20
90.5
 30
0.0
 40
1.5
  0
CIRCLE
  5
133
330
2
100
AcDbEntity
  8
MDRL
  6
Continuous
 62
     1
100
AcDbCircle
 10
292.0
 20
86.5
 30
0.0
 40
1.5
  0
CIRCLE
  5
134
330
2
100
AcDbEntity
  8
MDRL
  6
Continuous
 62
     1
100
AcDbCircle
 10
292.0
 20
98.50000000000001
 30
0.0
 40
1.5
  0
CIRCLE
  5
135
330
2
100
AcDbEntity
  8
MDRL
  6
Continuous
 62
     1
100
AcDbCircle
 10
292.0
 20
102.4999999999999
 30
0.0
 40
1.5
  0
CIRCLE
  5
136
330
2
100
AcDbEntity
  8
MDRL
  6
Continuous
 62
     1
100
AcDbCircle
 10
237.0
 20
113.7499999999999
 30
0.0
 40
1.5
  0
CIRCLE
  5
137
330
2
100
AcDbEntity
  8
MDRL
  6
Continuous
 62
     1
100
AcDbCircle
 10
222.0
 20
113.7499999999999
 30
0.0
 40
1.5
  0
CIRCLE
  5
138
330
2
100
AcDbEntity
  8
MDRL
  6
Continuous
 62
     1
100
AcDbCircle
 10
222.0
 20
108.75
 30
0.0
 40
1.5
  0
CIRCLE
  5
139
330
2
100
AcDbEntity
  8
MDRL
  6
Continuous
 62
     1
100
AcDbCircle
 10
237.0
 20
108.75
 30
0.0
 40
1.5
  0
CIRCLE
  5
13A
330
2
100
AcDbEntity
  8
MDRL
  6
Continuous
 62
     1
100
AcDbCircle
 10
267.0
 20
113.7499999999999
 30
0.0
 40
1.5
  0
CIRCLE
  5
13B
330
2
100
AcDbEntity
  8
MDRL
  6
Continuous
 62
     1
100
AcDbCircle
 10
252.0
 20
113.7499999999999
 30
0.0
 40
1.5
  0
CIRCLE
  5
13C
330
2
100
AcDbEntity
  8
MDRL
  6
Continuous
 62
     1
100
AcDbCircle
 10
252.0
 20
108.75
 30
0.0
 40
1.5
  0
CIRCLE
  5
13D
330
2
100
AcDbEntity
  8
MDRL
  6
Continuous
 62
     1
100
AcDbCircle
 10
267.0
 20
108.75
 30
0.0
 40
1.5
  0
CIRCLE
  5
13E
330
2
100
AcDbEntity
  8
MDRL
  6
DASHED
 62
     1
100
AcDbCircle
 10
275.7499999999999
 20
116.25
 30
0.0
 40
2.0
  0
CIRCLE
  5
13F
330
2
100
AcDbEntity
  8
MDRL
  6
Continuous
 62
     1
100
AcDbCircle
 10
275.7499999999999
 20
116.25
 30
0.0
 40
1.25
  0
CIRCLE
  5
140
330
2
100
AcDbEntity
  8
MDRL
  6
Continuous
 62
     1
100
AcDbCircle
 10
292.0
 20
114.5
 30
0.0
 40
1.5
  0
CIRCLE
  5
141
330
2
100
AcDbEntity
  8
MDRL
  6
Continuous
 62
     1
100
AcDbCircle
 10
292.0
 20
110.4999999999999
 30
0.0
 40
1.5
  0
CIRCLE
  5
142
330
2
100
AcDbEntity
  8
MDRL
  6
Continuous
 62
     1
100
AcDbCircle
 10
292.0
 20
106.4999999999999
 30
0.0
 40
1.5
  0
CIRCLE
  5
143
330
2
100
AcDbEntity
  8
MDRL
  6
DASHED
 62
     1
100
AcDbCircle
 10
298.2499999999999
 20
116.25
 30
0.0
 40
2.0
  0
CIRCLE
  5
144
330
2
100
AcDbEntity
  8
MDRL
  6
Continuous
 62
     1
100
AcDbCircle
 10
298.2499999999999
 20
116.25
 30
0.0
 40
1.25
  0
CIRCLE
  5
145
330
2
100
AcDbEntity
  8
MDRL
  6
Continuous
 62
     1
100
AcDbCircle
 10
413.25
 20
108.4999999999999
 30
0.0
 40
4.5
  0
CIRCLE
  5
146
330
2
100
AcDbEntity
  8
MDRL
  6
Continuous
 62
     1
100
AcDbCircle
 10
413.25
 20
92.5
 30
0.0
 40
4.5
  0
CIRCLE
  5
147
330
2
100
AcDbEntity
  8
MDRL
  6
Continuous
 62
     1
100
AcDbCircle
 10
413.25
 20
76.5
 30
0.0
 40
4.5
  0
CIRCLE
  5
148
330
2
100
AcDbEntity
  8
MDRL
  6
DASHED
 62
     1
100
AcDbCircle
 10
368.25
 20
68.75
 30
0.0
 40
2.0
  0
CIRCLE
  5
149
330
2
100
AcDbEntity
  8
MDRL
  6
Continuous
 62
     1
100
AcDbCircle
 10
368.25
 20
68.75
 30
0.0
 40
1.25
  0
CIRCLE
  5
14A
330
2
100
AcDbEntity
  8
MDRL
  6
Continuous
 62
     1
100
AcDbCircle
 10
369.5
 20
76.5
 30
0.0
 40
1.5
  0
CIRCLE
  5
14B
330
2
100
AcDbEntity
  8
MDRL
  6
Continuous
 62
     1
100
AcDbCircle
 10
369.5
 20
92.5
 30
0.0
 40
1.5
  0
CIRCLE
  5
14C
330
2
100
AcDbEntity
  8
MDRL
  6
Continuous
 62
     1
100
AcDbCircle
 10
369.5
 20
108.4999999999999
 30
0.0
 40
1.5
  0
CIRCLE
  5
14D
330
2
100
AcDbEntity
  8
MDRL
  6
DASHED
 62
     1
100
AcDbCircle
 10
368.25
 20
116.25
 30
0.0
 40
2.0
  0
CIRCLE
  5
14E
330
2
100
AcDbEntity
  8
MDRL
  6
Continuous
 62
     1
100
AcDbCircle
 10
368.25
 20
116.25
 30
0.0
 40
1.25
  0
ENDSEC
  0
SECTION
  2
OBJECTS
  0
DICTIONARY
  5
A
330
0
100
AcDbDictionary
281
     1
  3
ACAD_GROUP
350
1F
  3
ACAD_LAYOUT
350
9
  3
ACAD_MLINESTYLE
350
20
  3
ACAD_PLOTSETTINGS
350
21
  3
ACAD_PLOTSTYLENAME
350
22
  3
ASE_INDEX_DICTIONARY
350
153
  0
DICTIONARY
  5
1F
102
{ACAD_REACTORS
330
A
102
}
330
A
100
AcDbDictionary
281
     1
  0
DICTIONARY
  5
9
102
{ACAD_REACTORS
330
A
102
}
330
A
100
AcDbDictionary
281
     1
  3
Layout1
350
E
  3
Model
350
8
  0
DICTIONARY
  5
20
102
{ACAD_REACTORS
330
A
102
}
330
A
100
AcDbDictionary
281
     1
  3
Standard
350
23
  0
DICTIONARY
  5
21
102
{ACAD_REACTORS
330
A
102
}
330
A
100
AcDbDictionary
281
     1
  0
ACDBDICTIONARYWDFLT
  5
22
102
{ACAD_REACTORS
330
A
102
}
330
A
100
AcDbDictionary
281
     1
  3
Normal
350
5
100
AcDbDictionaryWithDefault
340
5
  0
DICTIONARY
  5
153
102
{ACAD_REACTORS
330
A
102
}
330
A
100
AcDbDictionary
281
     1
  3
ASEBlockHierarchyIndexRecord
350
155
1001
DCO15
1040
1595849959.343
  0
LAYOUT
  5
E
102
{ACAD_REACTORS
330
9
102
}
330
9
100
AcDbPlotSettings
  1

  2

  4

  6

 40
0.0
 41
0.0
 42
0.0
 43
0.0
 44
0.0
 45
0.0
 46
0.0
 47
0.0
 48
0.0
 49
0.0
140
0.0
141
0.0
142
1.0
143
1.0
 70
     0
 72
     0
 73
     0
 74
     0
  7

 75
     0
147
1.0
148
0.0
149
0.0
100
AcDbLayout
  1
Layout1
 70
     0
 71
     1
 10
0.0
 20
0.0
 11
12.0
 21
9.0
 12
0.0
 22
0.0
 32
0.0
 14
1.000000000000000E+20
 24
1.000000000000000E+20
 34
1.000000000000000E+20
 15
-1.000000000000000E+20
 25
-1.000000000000000E+20
 35
-1.000000000000000E+20
146
0.0
 13
0.0
 23
0.0
 33
0.0
 16
1.0
 26
0.0
 36
0.0
 17
0.0
 27
1.0
 37
0.0
 76
     0
330
B
  0
LAYOUT
  5
8
102
{ACAD_REACTORS
330
9
102
}
330
9
100
AcDbPlotSettings
  1

  2

  4

  6

 40
0.0
 41
0.0
 42
0.0
 43
0.0
 44
0.0
 45
0.0
 46
0.0
 47
0.0
 48
0.0
 49
0.0
140
0.0
141
0.0
142
1.0
143
1.0
 70
     0
 72
     0
 73
     0
 74
     0
  7

 75
     0
147
1.0
148
0.0
149
0.0
100
AcDbLayout
  1
Model
 70
     0
 71
     0
 10
0.0
 20
0.0
 11
0.0
 21
0.0
 12
0.0
 22
0.0
 32
0.0
 14
0.0
 24
0.0
 34
0.0
 15
0.0
 25
0.0
 35
0.0
146
0.0
 13
0.0
 23
0.0
 33
0.0
 16
0.0
 26
0.0
 36
0.0
 17
0.0
 27
0.0
 37
0.0
 76
     0
330
2
  0
MLINESTYLE
  5
23
102
{ACAD_REACTORS
330
20
102
}
330
20
100
AcDbMlineStyle
  2
STANDARD
 70
     0
  3

 62
   256
 51
90.0
 52
90.0
 71
     2
 49
0.5
 62
   256
  6
BYLAYER
 49
-0.5
 62
   256
  6
BYLAYER
  0
ACDBPLACEHOLDER
  5
5
102
{ACAD_REACTORS
330
22
102
}
330
0
  0
XRECORD
  5
155
102
{ACAD_REACTORS
330
153
102
}
330
153
100
AcDbXrecord
280
     1
  0
ENDSEC
  0
EOF
