999
Created 6/28/2007 1:19 by PCAD/ALTIUM DXFOUT translator, Version 8.7
999
PCAD PCB
  0
SECTION
  2
HEADER
  9
$ACADVER
  1
AC1009
  9
$SNAPMODE
 70
     1
  9
$SNAPUNIT
 10
0.05
 20
0.05
  9
$SNAPBASE
 10
0.0
 20
0.0
  9
$SNAPANG
 50
0.0
  9
$SNAPSTYLE
 70
     0
  9
$SNAPISOPAIR
 70
     0
  9
$GRIDMODE
 70
     0
  9
$GRIDUNIT
 10
0.05
 20
0.05
  9
$COORDS
 70
     1
  9
$FLATLAND
 70
     1
  0
ENDSEC
  0
SECTION
  2
TABLES
  0
TABLE
  2
LTYPE
 70
     3
  0
LTYPE
  2
CONTINUOUS
 70
    64
  3
Solid line
 72
    65
 73
     0
 40
0.0
  0
LTYPE
  2
DASHED
 70
    64
  3
Dashed line
 72
    65
 73
     2
 40
0.2
 49
0.1
 49
-0.1
  0
LTYPE
  2
DOT
 70
    64
  3
Dotted line
 72
    65
 73
     2
 40
0.1
 49
0.0
 49
-0.1
  0
ENDTAB
  0
TABLE
  2
LAYER
 70
    47
  0
LAYER
  2
0
 70
     0
 62
     1
  6
CONTINUOUS
  0
LAYER
  2
PADCOM
 70
     0
 62
    14
  6
CONTINUOUS
  0
LAYER
  2
BRDOUT
 70
     0
 62
     4
  6
CONTINUOUS
  0
LAYER
  2
SLKSCR
 70
     0
 62
    13
  6
CONTINUOUS
  0
LAYER
  2
DEVICE
 70
     0
 62
     1
  6
CONTINUOUS
  0
LAYER
  2
REFDES
 70
     0
 62
     4
  6
CONTINUOUS
  0
LAYER
  2
COMP
 70
     0
 62
     1
  6
CONTINUOUS
  0
LAYER
  2
SOLDER
 70
     0
 62
     2
  6
CONTINUOUS
  0
LAYER
  2
PINTOP
 70
     0
 62
     4
  6
CONTINUOUS
  0
LAYER
  2
SLKTOP
 70
     0
 62
     6
  6
CONTINUOUS
  0
LAYER
  2
DVCTOP
 70
     0
 62
     2
  6
CONTINUOUS
  0
LAYER
  2
REFDTP
 70
     0
 62
     4
  6
CONTINUOUS
  0
LAYER
  2
MECH1
 70
     0
 62
     4
  6
CONTINUOUS
  0
LAYER
  2
FABDAT
 70
     0
 62
     9
  6
CONTINUOUS
  0
LAYER
  2
NOTES
 70
     0
 62
     9
  6
CONTINUOUS
  0
LAYER
  2
GRAPHI
 70
     0
 62
     4
  6
CONTINUOUS
  0
LAYER
  2
LEDRED
 70
     0
 62
     2
  6
CONTINUOUS
  0
LAYER
  2
LRDGRN
 70
     0
 62
     1
  6
CONTINUOUS
  0
LAYER
  2
LEDYEL
 70
     0
 62
     3
  6
CONTINUOUS
  0
LAYER
  2
LEDGRN
 70
     0
 62
     1
  6
CONTINUOUS
  0
LAYER
  2
MDRL
 70
     0
 62
     1
  6
CONTINUOUS
  0
ENDTAB
  0
TABLE
  2
STYLE
 70
     3
  0
STYLE
  2
TXT
 70
     0
 40
0.0
 41
1.0
 50
0.0
 71
     0
 42
0.125
  3
TXT
  4

  0
ENDTAB
  0
TABLE
  2
VIEW
 70
     0
  0
ENDTAB
  0
ENDSEC
  0
SECTION
  2
BLOCKS
  0
BLOCK
  2
d37mech_T
 70
     0
 10
1.750000
 20
6.250000
  0
ATTDEF
  8
0
 10
0.00
 20
0.00
 40
0.025
  1
COMPONENT
  2
OBJECT
  3
attribute ?
 70
     9
  0
LINE
  8
MECH1
  6
CONTINUOUS
 10
5.000000
 20
11.750000
 11
4.250000
 21
12.000000
  0
LINE
  8
MECH1
  6
CONTINUOUS
 10
5.250000
 20
10.750000
 11
4.250000
 21
12.000000
  0
LINE
  8
MECH1
  6
CONTINUOUS
 10
5.500000
 20
9.000000
 11
3.750000
 21
9.000000
  0
LINE
  8
MECH1
  6
CONTINUOUS
 10
1.750000
 20
6.250000
 11
6.250000
 21
6.250000
  0
LINE
  8
MECH1
  6
CONTINUOUS
 10
6.250000
 20
6.250000
 11
9.250000
 21
9.000000
  0
LINE
  8
MECH1
  6
CONTINUOUS
 10
16.750000
 20
0.750000
 11
16.500000
 21
0.000000
  0
LINE
  8
MECH1
  6
CONTINUOUS
 10
16.500000
 20
0.000000
 11
16.250000
 21
0.750000
  0
LINE
  8
MECH1
  6
CONTINUOUS
 10
16.750000
 20
11.750000
 11
16.500000
 21
12.500000
  0
LINE
  8
MECH1
  6
CONTINUOUS
 10
16.500000
 20
12.500000
 11
16.250000
 21
11.750000
  0
LINE
  8
MECH1
  6
CONTINUOUS
 10
16.500000
 20
0.000000
 11
16.500000
 21
12.500000
  0
LINE
  8
MECH1
  6
CONTINUOUS
 10
0.000000
 20
9.000000
 11
1.750000
 21
9.000000
  0
LINE
  8
MECH1
  6
CONTINUOUS
 10
1.750000
 20
11.250000
 11
1.750000
 21
8.500000
  0
LINE
  8
MECH1
  6
CONTINUOUS
 10
2.250000
 20
6.250000
 11
1.250000
 21
6.250000
  0
LINE
  8
MECH1
  6
CONTINUOUS
 10
1.750000
 20
6.250000
 11
0.750000
 21
7.250000
  0
LINE
  8
MECH1
  6
CONTINUOUS
 10
1.500000
 20
7.000000
 11
0.750000
 21
7.250000
  0
LINE
  8
MECH1
  6
CONTINUOUS
 10
4.500000
 20
8.750000
 11
3.750000
 21
9.000000
  0
LINE
  8
MECH1
  6
CONTINUOUS
 10
3.750000
 20
9.000000
 11
4.500000
 21
9.250000
  0
LINE
  8
MECH1
  6
CONTINUOUS
 10
1.000000
 20
8.750000
 11
1.750000
 21
9.000000
  0
LINE
  8
MECH1
  6
CONTINUOUS
 10
1.750000
 20
9.000000
 11
1.000000
 21
9.250000
  0
LINE
  8
MECH1
  6
CONTINUOUS
 10
1.000000
 20
6.500000
 11
0.750000
 21
7.250000
  0
LINE
  8
MECH1
  6
CONTINUOUS
 10
1.750000
 20
5.750000
 11
1.750000
 21
6.750000
  0
LINE
  8
MECH1
  6
CONTINUOUS
 10
64.750000
 20
6.250000
 11
65.750000
 21
6.250000
  0
LINE
  8
MECH1
  6
CONTINUOUS
 10
65.250000
 20
6.750000
 11
65.250000
 21
5.750000
  0
ARC
  8
MDRL
  6
CONTINUOUS
 10
65.250000
 20
6.250000
 40
1.500000
 50
270
 51
90
  0
ARC
  8
MDRL
  6
CONTINUOUS
 10
1.750000
 20
6.250000
 40
1.500000
 50
90
 51
270
  0
LINE
  8
MDRL
  6
CONTINUOUS
 10
63.250000
 20
1.500000
 11
63.250000
 21
4.750000
  0
LINE
  8
MDRL
  6
CONTINUOUS
 10
63.250000
 20
4.750000
 11
65.250000
 21
4.750000
  0
LINE
  8
MDRL
  6
CONTINUOUS
 10
9.250000
 20
0.000000
 11
61.750000
 21
0.000000
  0
LINE
  8
MDRL
  6
CONTINUOUS
 10
63.250000
 20
11.000000
 11
63.250000
 21
7.750000
  0
LINE
  8
MDRL
  6
CONTINUOUS
 10
63.250000
 20
7.750000
 11
65.250000
 21
7.750000
  0
LINE
  8
MDRL
  6
CONTINUOUS
 10
9.250000
 20
12.500000
 11
61.750000
 21
12.500000
  0
LINE
  8
MDRL
  6
CONTINUOUS
 10
10.500000
 20
0.000000
 11
5.250000
 21
0.000000
  0
LINE
  8
MDRL
  6
CONTINUOUS
 10
3.750000
 20
1.500000
 11
3.750000
 21
4.750000
  0
LINE
  8
MDRL
  6
CONTINUOUS
 10
3.750000
 20
4.750000
 11
1.750000
 21
4.750000
  0
LINE
  8
MDRL
  6
CONTINUOUS
 10
10.500000
 20
12.500000
 11
5.250000
 21
12.500000
  0
LINE
  8
MDRL
  6
CONTINUOUS
 10
3.750000
 20
11.000000
 11
3.750000
 21
7.750000
  0
LINE
  8
MDRL
  6
CONTINUOUS
 10
3.750000
 20
7.750000
 11
1.750000
 21
7.750000
  0
ARC
  8
MDRL
  6
CONTINUOUS
 10
61.750000
 20
1.500000
 40
1.500000
 50
270
 51
0
  0
ARC
  8
MDRL
  6
CONTINUOUS
 10
5.250000
 20
11.000000
 40
1.500000
 50
90
 51
180
  0
ARC
  8
MDRL
  6
CONTINUOUS
 10
61.750000
 20
11.000000
 40
1.500000
 50
0
 51
90
  0
ARC
  8
MDRL
  6
CONTINUOUS
 10
5.250000
 20
1.500000
 40
1.500000
 50
180
 51
270
  0
LINE
  8
MDRL
  6
CONTINUOUS
 10
4.500000
 20
11.250000
 11
4.250000
 21
12.000000
  0
ENDBLK
  0
BLOCK
  2
d9mech_T
 70
     0
 10
1.750000
 20
6.250000
  0
ATTDEF
  8
0
 10
0.00
 20
0.00
 40
0.025
  1
COMPONENT
  2
OBJECT
  3
attribute ?
 70
     9
  0
LINE
  8
MECH1
  6
CONTINUOUS
 10
16.750000
 20
0.750000
 11
16.500000
 21
0.000000
  0
LINE
  8
MECH1
  6
CONTINUOUS
 10
16.500000
 20
0.000000
 11
16.250000
 21
0.750000
  0
LINE
  8
MECH1
  6
CONTINUOUS
 10
16.750000
 20
11.750000
 11
16.500000
 21
12.500000
  0
LINE
  8
MECH1
  6
CONTINUOUS
 10
16.500000
 20
12.500000
 11
16.250000
 21
11.750000
  0
LINE
  8
MECH1
  6
CONTINUOUS
 10
26.750000
 20
6.750000
 11
26.750000
 21
5.750000
  0
LINE
  8
MECH1
  6
CONTINUOUS
 10
26.250000
 20
6.250000
 11
27.250000
 21
6.250000
  0
LINE
  8
MECH1
  6
CONTINUOUS
 10
4.500000
 20
11.250000
 11
4.250000
 21
12.000000
  0
LINE
  8
MECH1
  6
CONTINUOUS
 10
5.250000
 20
10.750000
 11
4.250000
 21
12.000000
  0
LINE
  8
MECH1
  6
CONTINUOUS
 10
5.500000
 20
9.000000
 11
3.750000
 21
9.000000
  0
LINE
  8
MECH1
  6
CONTINUOUS
 10
4.500000
 20
8.750000
 11
3.750000
 21
9.000000
  0
LINE
  8
MECH1
  6
CONTINUOUS
 10
3.750000
 20
9.000000
 11
4.500000
 21
9.250000
  0
LINE
  8
MECH1
  6
CONTINUOUS
 10
5.000000
 20
11.750000
 11
4.250000
 21
12.000000
  0
LINE
  8
MECH1
  6
CONTINUOUS
 10
1.750000
 20
11.250000
 11
1.750000
 21
8.500000
  0
LINE
  8
MECH1
  6
CONTINUOUS
 10
0.000000
 20
9.000000
 11
1.750000
 21
9.000000
  0
LINE
  8
MECH1
  6
CONTINUOUS
 10
1.000000
 20
8.750000
 11
1.750000
 21
9.000000
  0
LINE
  8
MECH1
  6
CONTINUOUS
 10
1.750000
 20
9.000000
 11
1.000000
 21
9.250000
  0
LINE
  8
MECH1
  6
CONTINUOUS
 10
1.750000
 20
6.250000
 11
6.250000
 21
6.250000
  0
LINE
  8
MECH1
  6
CONTINUOUS
 10
6.250000
 20
6.250000
 11
9.250000
 21
9.000000
  0
LINE
  8
MECH1
  6
CONTINUOUS
 10
2.250000
 20
6.250000
 11
1.250000
 21
6.250000
  0
LINE
  8
MECH1
  6
CONTINUOUS
 10
1.750000
 20
5.750000
 11
1.750000
 21
6.750000
  0
LINE
  8
MECH1
  6
CONTINUOUS
 10
1.750000
 20
6.250000
 11
0.750000
 21
7.250000
  0
LINE
  8
MECH1
  6
CONTINUOUS
 10
1.000000
 20
6.500000
 11
0.750000
 21
7.250000
  0
LINE
  8
MECH1
  6
CONTINUOUS
 10
1.500000
 20
7.000000
 11
0.750000
 21
7.250000
  0
ARC
  8
MDRL
  6
CONTINUOUS
 10
26.750000
 20
6.250000
 40
1.500000
 50
270
 51
90
  0
ARC
  8
MDRL
  6
CONTINUOUS
 10
1.750000
 20
6.250000
 40
1.500000
 50
90
 51
270
  0
LINE
  8
MDRL
  6
CONTINUOUS
 10
24.750000
 20
1.500000
 11
24.750000
 21
4.750000
  0
LINE
  8
MDRL
  6
CONTINUOUS
 10
24.750000
 20
4.750000
 11
26.750000
 21
4.750000
  0
LINE
  8
MDRL
  6
CONTINUOUS
 10
5.500000
 20
0.000000
 11
23.250000
 21
0.000000
  0
LINE
  8
MDRL
  6
CONTINUOUS
 10
24.750000
 20
11.000000
 11
24.750000
 21
7.750000
  0
LINE
  8
MDRL
  6
CONTINUOUS
 10
24.750000
 20
7.750000
 11
26.750000
 21
7.750000
  0
LINE
  8
MDRL
  6
CONTINUOUS
 10
5.250000
 20
12.500000
 11
23.250000
 21
12.500000
  0
LINE
  8
MDRL
  6
CONTINUOUS
 10
10.500000
 20
0.000000
 11
5.250000
 21
0.000000
  0
LINE
  8
MDRL
  6
CONTINUOUS
 10
3.750000
 20
1.500000
 11
3.750000
 21
4.750000
  0
LINE
  8
MDRL
  6
CONTINUOUS
 10
3.750000
 20
4.750000
 11
1.750000
 21
4.750000
  0
LINE
  8
MDRL
  6
CONTINUOUS
 10
10.500000
 20
12.500000
 11
5.250000
 21
12.500000
  0
LINE
  8
MDRL
  6
CONTINUOUS
 10
3.750000
 20
11.000000
 11
3.750000
 21
7.750000
  0
LINE
  8
MDRL
  6
CONTINUOUS
 10
3.750000
 20
7.750000
 11
1.750000
 21
7.750000
  0
ARC
  8
MDRL
  6
CONTINUOUS
 10
23.250000
 20
1.500000
 40
1.500000
 50
270
 51
0
  0
ARC
  8
MDRL
  6
CONTINUOUS
 10
5.250000
 20
11.000000
 40
1.500000
 50
90
 51
180
  0
ARC
  8
MDRL
  6
CONTINUOUS
 10
23.250000
 20
11.000000
 40
1.500000
 50
0
 51
90
  0
ARC
  8
MDRL
  6
CONTINUOUS
 10
5.250000
 20
1.500000
 40
1.500000
 50
180
 51
270
  0
LINE
  8
MDRL
  6
CONTINUOUS
 10
16.500000
 20
0.000000
 11
16.500000
 21
12.500000
  0
ENDBLK
  0
BLOCK
  2
armech1_T
 70
     0
 10
0.000000
 20
0.635000
  0
ATTDEF
  8
0
 10
0.00
 20
0.00
 40
0.025
  1
COMPONENT
  2
OBJECT
  3
attribute ?
 70
     9
  0
LINE
  8
MECH1
  6
CONTINUOUS
 10
3.175000
 20
0.635000
 11
0.000000
 21
0.000000
  0
LINE
  8
MECH1
  6
CONTINUOUS
 10
0.000000
 20
0.000000
 11
0.000000
 21
1.270000
  0
LINE
  8
MECH1
  6
CONTINUOUS
 10
0.000000
 20
1.270000
 11
3.175000
 21
0.635000
  0
ENDBLK
  0
ENDSEC
  0
SECTION
  2
ENTITIES
  0
INSERT
  8
0
  2
d37mech_T
 10
120.000000
 20
-475.000000
 41
1
 50
0.000000
 66
     1
  0
ATTRIB
  8
MECH1
  1
R 1.5
 40
2.000000
 41
1.000000
 50
0.000000
 72
     0
 10
124.000000
 20
-470.500000
 11
124.000000
 21
-470.500000
 71
     0
  2
TEXT
 70
     8
  0
ATTRIB
  8
MECH1
  1
12.6
 40
2.000000
 41
1.000000
 50
90.000000
 72
     4
 10
136.750000
 20
-477.250000
 11
136.750000
 21
-473.250000
 71
     0
  2
TEXT
 70
     8
  0
ATTRIB
  8
MECH1
  1
63.5
 40
2.000000
 41
1.000000
 50
0.000000
 72
     4
 10
125.000000
 20
-476.250000
 11
129.000000
 21
-476.250000
 71
     0
  2
TEXT
 70
     8
  0
ATTRIB
  8
MECH1
  1
between centres
 40
2.000000
 41
1.000000
 50
0.000000
 72
     4
 10
120.750000
 20
-478.750000
 11
134.750000
 21
-478.750000
 71
     0
  2
TEXT
 70
     8
  0
ATTRIB
  8
MECH1
  1
2
 40
2.000000
 41
1.000000
 50
0.000000
 72
     4
 10
121.000000
 20
-471.750000
 11
121.000000
 21
-471.750000
 71
     0
  2
TEXT
 70
     8
  0
ATTRIB
  8
0
  1
COMPONENT
 40
0.000000
 41
1.000000
 50
0.000000
 72
     0
 10
0.000000
 20
0.000000
 11
0.000000
 21
0.000000
 71
     0
  2
OBJECT
 70
     9
  0
SEQEND
  0
INSERT
  8
0
  2
d9mech_T
 10
225.000000
 20
-450.000000
 41
1
 50
270.000000
 66
     1
  0
ATTRIB
  8
MECH1
  1
12.6
 40
2.000000
 41
1.000000
 50
360.000000
 72
     4
 10
226.500000
 20
-470.500000
 11
226.500000
 21
-466.500000
 71
     0
  2
TEXT
 70
     8
  0
ATTRIB
  8
MECH1
  1
25.0
 40
2.000000
 41
1.000000
 50
270.000000
 72
     4
 10
219.250000
 20
-458.000000
 11
223.250000
 21
-458.000000
 71
     0
  2
TEXT
 70
     8
  0
ATTRIB
  8
MECH1
  1
between cntrs
 40
2.000000
 41
1.000000
 50
270.000000
 72
     4
 10
209.250000
 20
-462.750000
 11
221.250000
 21
-462.750000
 71
     0
  2
TEXT
 70
     8
  0
ATTRIB
  8
MECH1
  1
R 1.5
 40
2.000000
 41
1.000000
 50
270.000000
 72
     0
 10
229.500000
 20
-454.000000
 11
229.500000
 21
-454.000000
 71
     0
  2
TEXT
 70
     8
  0
ATTRIB
  8
MECH1
  1
2
 40
2.000000
 41
1.000000
 50
270.000000
 72
     4
 10
228.250000
 20
-451.000000
 11
228.250000
 21
-451.000000
 71
     0
  2
TEXT
 70
     8
  0
ATTRIB
  8
0
  1
COMPONENT
 40
0.000000
 41
1.000000
 50
270.000000
 72
     0
 10
0.000000
 20
0.000000
 11
0.000000
 21
0.000000
 71
     0
  2
OBJECT
 70
     9
  0
SEQEND
  0
INSERT
  8
0
  2
armech1_T
 10
40.180099
 20
-411.531189
 41
1
 50
38.000000
 66
     1
  0
ATTRIB
  8
0
  1
COMPONENT
 40
0.000000
 41
1.000000
 50
38.000000
 72
     0
 10
0.000000
 20
0.000000
 11
0.000000
 21
0.000000
 71
     0
  2
OBJECT
 70
     9
  0
SEQEND
  0
INSERT
  8
0
  2
armech1_T
 10
52.174999
 20
-437.500000
 41
1
 50
180.000000
 66
     1
  0
ATTRIB
  8
0
  1
COMPONENT
 40
0.000000
 41
1.000000
 50
180.000000
 72
     0
 10
0.000000
 20
0.000000
 11
0.000000
 21
0.000000
 71
     0
  2
OBJECT
 70
     9
  0
SEQEND
  0
INSERT
  8
0
  2
armech1_T
 10
32.825001
 20
-437.500000
 41
1
 50
0.000000
 66
     1
  0
ATTRIB
  8
0
  1
COMPONENT
 40
0.000000
 41
1.000000
 50
0.000000
 72
     0
 10
0.000000
 20
0.000000
 11
0.000000
 21
0.000000
 71
     0
  2
OBJECT
 70
     9
  0
SEQEND
  0
INSERT
  8
0
  2
armech1_T
 10
89.500000
 20
-417.825012
 41
1
 50
270.000000
 66
     1
  0
ATTRIB
  8
0
  1
COMPONENT
 40
0.000000
 41
1.000000
 50
270.000000
 72
     0
 10
0.000000
 20
0.000000
 11
0.000000
 21
0.000000
 71
     0
  2
OBJECT
 70
     9
  0
SEQEND
  0
INSERT
  8
0
  2
armech1_T
 10
89.500000
 20
-379.674988
 41
1
 50
90.000000
 66
     1
  0
ATTRIB
  8
0
  1
COMPONENT
 40
0.000000
 41
1.000000
 50
90.000000
 72
     0
 10
0.000000
 20
0.000000
 11
0.000000
 21
0.000000
 71
     0
  2
OBJECT
 70
     9
  0
SEQEND
  0
INSERT
  8
0
  2
armech1_T
 10
367.399994
 20
-401.825012
 41
1
 50
270.000000
 66
     1
  0
ATTRIB
  8
0
  1
COMPONENT
 40
0.000000
 41
1.000000
 50
270.000000
 72
     0
 10
0.000000
 20
0.000000
 11
0.000000
 21
0.000000
 71
     0
  2
OBJECT
 70
     9
  0
SEQEND
  0
INSERT
  8
0
  2
armech1_T
 10
367.399994
 20
-379.674988
 41
1
 50
90.000000
 66
     1
  0
ATTRIB
  8
0
  1
COMPONENT
 40
0.000000
 41
1.000000
 50
90.000000
 72
     0
 10
0.000000
 20
0.000000
 11
0.000000
 21
0.000000
 71
     0
  2
OBJECT
 70
     9
  0
SEQEND
  0
INSERT
  8
0
  2
armech1_T
 10
361.049988
 20
-436.825012
 41
1
 50
270.000000
 66
     1
  0
ATTRIB
  8
0
  1
COMPONENT
 40
0.000000
 41
1.000000
 50
270.000000
 72
     0
 10
0.000000
 20
0.000000
 11
0.000000
 21
0.000000
 71
     0
  2
OBJECT
 70
     9
  0
SEQEND
  0
INSERT
  8
0
  2
armech1_T
 10
361.049988
 20
-379.674988
 41
1
 50
90.000000
 66
     1
  0
ATTRIB
  8
0
  1
COMPONENT
 40
0.000000
 41
1.000000
 50
90.000000
 72
     0
 10
0.000000
 20
0.000000
 11
0.000000
 21
0.000000
 71
     0
  2
OBJECT
 70
     9
  0
SEQEND
  0
INSERT
  8
0
  2
armech1_T
 10
354.700012
 20
-471.825012
 41
1
 50
270.000000
 66
     1
  0
ATTRIB
  8
0
  1
COMPONENT
 40
0.000000
 41
1.000000
 50
270.000000
 72
     0
 10
0.000000
 20
0.000000
 11
0.000000
 21
0.000000
 71
     0
  2
OBJECT
 70
     9
  0
SEQEND
  0
INSERT
  8
0
  2
armech1_T
 10
354.700012
 20
-379.674988
 41
1
 50
90.000000
 66
     1
  0
ATTRIB
  8
0
  1
COMPONENT
 40
0.000000
 41
1.000000
 50
90.000000
 72
     0
 10
0.000000
 20
0.000000
 11
0.000000
 21
0.000000
 71
     0
  2
OBJECT
 70
     9
  0
SEQEND
  0
INSERT
  8
0
  2
armech1_T
 10
56.925999
 20
-431.572906
 41
1
 50
20.000000
 66
     1
  0
ATTRIB
  8
0
  1
COMPONENT
 40
0.000000
 41
1.000000
 50
20.000000
 72
     0
 10
0.000000
 20
0.000000
 11
0.000000
 21
0.000000
 71
     0
  2
OBJECT
 70
     9
  0
SEQEND
  0
INSERT
  8
0
  2
armech1_T
 10
348.350006
 20
-379.674988
 41
1
 50
90.000000
 66
     1
  0
ATTRIB
  8
0
  1
COMPONENT
 40
0.000000
 41
1.000000
 50
90.000000
 72
     0
 10
0.000000
 20
0.000000
 11
0.000000
 21
0.000000
 71
     0
  2
OBJECT
 70
     9
  0
SEQEND
  0
INSERT
  8
0
  2
armech1_T
 10
348.350006
 20
-446.825012
 41
1
 50
270.000000
 66
     1
  0
ATTRIB
  8
0
  1
COMPONENT
 40
0.000000
 41
1.000000
 50
270.000000
 72
     0
 10
0.000000
 20
0.000000
 11
0.000000
 21
0.000000
 71
     0
  2
OBJECT
 70
     9
  0
SEQEND
  0
INSERT
  8
0
  2
armech1_T
 10
342.000000
 20
-373.325012
 41
1
 50
270.000000
 66
     1
  0
ATTRIB
  8
0
  1
COMPONENT
 40
0.000000
 41
1.000000
 50
270.000000
 72
     0
 10
0.000000
 20
0.000000
 11
0.000000
 21
0.000000
 71
     0
  2
OBJECT
 70
     9
  0
SEQEND
  0
INSERT
  8
0
  2
armech1_T
 10
376.825012
 20
-306.549988
 41
1
 50
0.000000
 66
     1
  0
ATTRIB
  8
0
  1
COMPONENT
 40
0.000000
 41
1.000000
 50
0.000000
 72
     0
 10
0.000000
 20
0.000000
 11
0.000000
 21
0.000000
 71
     0
  2
OBJECT
 70
     9
  0
SEQEND
  0
INSERT
  8
0
  2
armech1_T
 10
39.174999
 20
-306.549988
 41
1
 50
180.000000
 66
     1
  0
ATTRIB
  8
0
  1
COMPONENT
 40
0.000000
 41
1.000000
 50
180.000000
 72
     0
 10
0.000000
 20
0.000000
 11
0.000000
 21
0.000000
 71
     0
  2
OBJECT
 70
     9
  0
SEQEND
  0
INSERT
  8
0
  2
armech1_T
 10
321.825012
 20
-312.899994
 41
1
 50
0.000000
 66
     1
  0
ATTRIB
  8
0
  1
COMPONENT
 40
0.000000
 41
1.000000
 50
0.000000
 72
     0
 10
0.000000
 20
0.000000
 11
0.000000
 21
0.000000
 71
     0
  2
OBJECT
 70
     9
  0
SEQEND
  0
INSERT
  8
0
  2
armech1_T
 10
39.174999
 20
-312.899994
 41
1
 50
180.000000
 66
     1
  0
ATTRIB
  8
0
  1
COMPONENT
 40
0.000000
 41
1.000000
 50
180.000000
 72
     0
 10
0.000000
 20
0.000000
 11
0.000000
 21
0.000000
 71
     0
  2
OBJECT
 70
     9
  0
SEQEND
  0
INSERT
  8
0
  2
armech1_T
 10
301.825012
 20
-319.250000
 41
1
 50
0.000000
 66
     1
  0
ATTRIB
  8
0
  1
COMPONENT
 40
0.000000
 41
1.000000
 50
0.000000
 72
     0
 10
0.000000
 20
0.000000
 11
0.000000
 21
0.000000
 71
     0
  2
OBJECT
 70
     9
  0
SEQEND
  0
INSERT
  8
0
  2
armech1_T
 10
39.174999
 20
-319.250000
 41
1
 50
180.000000
 66
     1
  0
ATTRIB
  8
0
  1
COMPONENT
 40
0.000000
 41
1.000000
 50
180.000000
 72
     0
 10
0.000000
 20
0.000000
 11
0.000000
 21
0.000000
 71
     0
  2
OBJECT
 70
     9
  0
SEQEND
  0
INSERT
  8
0
  2
armech1_T
 10
281.825012
 20
-325.600006
 41
1
 50
0.000000
 66
     1
  0
ATTRIB
  8
0
  1
COMPONENT
 40
0.000000
 41
1.000000
 50
0.000000
 72
     0
 10
0.000000
 20
0.000000
 11
0.000000
 21
0.000000
 71
     0
  2
OBJECT
 70
     9
  0
SEQEND
  0
INSERT
  8
0
  2
armech1_T
 10
39.174999
 20
-325.600006
 41
1
 50
180.000000
 66
     1
  0
ATTRIB
  8
0
  1
COMPONENT
 40
0.000000
 41
1.000000
 50
180.000000
 72
     0
 10
0.000000
 20
0.000000
 11
0.000000
 21
0.000000
 71
     0
  2
OBJECT
 70
     9
  0
SEQEND
  0
INSERT
  8
0
  2
armech1_T
 10
261.825012
 20
-331.950012
 41
1
 50
0.000000
 66
     1
  0
ATTRIB
  8
0
  1
COMPONENT
 40
0.000000
 41
1.000000
 50
0.000000
 72
     0
 10
0.000000
 20
0.000000
 11
0.000000
 21
0.000000
 71
     0
  2
OBJECT
 70
     9
  0
SEQEND
  0
INSERT
  8
0
  2
armech1_T
 10
39.174999
 20
-331.950012
 41
1
 50
180.000000
 66
     1
  0
ATTRIB
  8
0
  1
COMPONENT
 40
0.000000
 41
1.000000
 50
180.000000
 72
     0
 10
0.000000
 20
0.000000
 11
0.000000
 21
0.000000
 71
     0
  2
OBJECT
 70
     9
  0
SEQEND
  0
INSERT
  8
0
  2
armech1_T
 10
241.824997
 20
-338.299988
 41
1
 50
0.000000
 66
     1
  0
ATTRIB
  8
0
  1
COMPONENT
 40
0.000000
 41
1.000000
 50
0.000000
 72
     0
 10
0.000000
 20
0.000000
 11
0.000000
 21
0.000000
 71
     0
  2
OBJECT
 70
     9
  0
SEQEND
  0
INSERT
  8
0
  2
armech1_T
 10
39.174999
 20
-338.299988
 41
1
 50
180.000000
 66
     1
  0
ATTRIB
  8
0
  1
COMPONENT
 40
0.000000
 41
1.000000
 50
180.000000
 72
     0
 10
0.000000
 20
0.000000
 11
0.000000
 21
0.000000
 71
     0
  2
OBJECT
 70
     9
  0
SEQEND
  0
INSERT
  8
0
  2
armech1_T
 10
221.824997
 20
-344.649994
 41
1
 50
0.000000
 66
     1
  0
ATTRIB
  8
0
  1
COMPONENT
 40
0.000000
 41
1.000000
 50
0.000000
 72
     0
 10
0.000000
 20
0.000000
 11
0.000000
 21
0.000000
 71
     0
  2
OBJECT
 70
     9
  0
SEQEND
  0
INSERT
  8
0
  2
armech1_T
 10
39.174999
 20
-344.649994
 41
1
 50
180.000000
 66
     1
  0
ATTRIB
  8
0
  1
COMPONENT
 40
0.000000
 41
1.000000
 50
180.000000
 72
     0
 10
0.000000
 20
0.000000
 11
0.000000
 21
0.000000
 71
     0
  2
OBJECT
 70
     9
  0
SEQEND
  0
INSERT
  8
0
  2
armech1_T
 10
116.824997
 20
-351.000000
 41
1
 50
0.000000
 66
     1
  0
ATTRIB
  8
0
  1
COMPONENT
 40
0.000000
 41
1.000000
 50
0.000000
 72
     0
 10
0.000000
 20
0.000000
 11
0.000000
 21
0.000000
 71
     0
  2
OBJECT
 70
     9
  0
SEQEND
  0
INSERT
  8
0
  2
armech1_T
 10
39.174999
 20
-351.000000
 41
1
 50
180.000000
 66
     1
  0
ATTRIB
  8
0
  1
COMPONENT
 40
0.000000
 41
1.000000
 50
180.000000
 72
     0
 10
0.000000
 20
0.000000
 11
0.000000
 21
0.000000
 71
     0
  2
OBJECT
 70
     9
  0
SEQEND
  0
INSERT
  8
0
  2
armech1_T
 10
63.174999
 20
-360.649994
 41
1
 50
180.000000
 66
     1
  0
ATTRIB
  8
0
  1
COMPONENT
 40
0.000000
 41
1.000000
 50
180.000000
 72
     0
 10
0.000000
 20
0.000000
 11
0.000000
 21
0.000000
 71
     0
  2
OBJECT
 70
     9
  0
SEQEND
  0
INSERT
  8
0
  2
armech1_T
 10
32.825001
 20
-360.649994
 41
1
 50
0.000000
 66
     1
  0
ATTRIB
  8
0
  1
COMPONENT
 40
0.000000
 41
1.000000
 50
0.000000
 72
     0
 10
0.000000
 20
0.000000
 11
0.000000
 21
0.000000
 71
     0
  2
OBJECT
 70
     9
  0
SEQEND
  0
INSERT
  8
0
  2
armech1_T
 10
43.174999
 20
-367.000000
 41
1
 50
180.000000
 66
     1
  0
ATTRIB
  8
0
  1
COMPONENT
 40
0.000000
 41
1.000000
 50
180.000000
 72
     0
 10
0.000000
 20
0.000000
 11
0.000000
 21
0.000000
 71
     0
  2
OBJECT
 70
     9
  0
SEQEND
  0
INSERT
  8
0
  2
armech1_T
 10
32.825001
 20
-367.000000
 41
1
 50
0.000000
 66
     1
  0
ATTRIB
  8
0
  1
COMPONENT
 40
0.000000
 41
1.000000
 50
0.000000
 72
     0
 10
0.000000
 20
0.000000
 11
0.000000
 21
0.000000
 71
     0
  2
OBJECT
 70
     9
  0
SEQEND
  0
INSERT
  8
0
  2
armech1_T
 10
11.450000
 20
-458.325012
 41
1
 50
270.000000
 66
     1
  0
ATTRIB
  8
0
  1
COMPONENT
 40
0.000000
 41
1.000000
 50
270.000000
 72
     0
 10
0.000000
 20
0.000000
 11
0.000000
 21
0.000000
 71
     0
  2
OBJECT
 70
     9
  0
SEQEND
  0
INSERT
  8
0
  2
armech1_T
 10
11.450000
 20
-379.674988
 41
1
 50
90.000000
 66
     1
  0
ATTRIB
  8
0
  1
COMPONENT
 40
0.000000
 41
1.000000
 50
90.000000
 72
     0
 10
0.000000
 20
0.000000
 11
0.000000
 21
0.000000
 71
     0
  2
OBJECT
 70
     9
  0
SEQEND
  0
INSERT
  8
0
  2
armech1_T
 10
17.799999
 20
-426.325012
 41
1
 50
270.000000
 66
     1
  0
ATTRIB
  8
0
  1
COMPONENT
 40
0.000000
 41
1.000000
 50
270.000000
 72
     0
 10
0.000000
 20
0.000000
 11
0.000000
 21
0.000000
 71
     0
  2
OBJECT
 70
     9
  0
SEQEND
  0
INSERT
  8
0
  2
armech1_T
 10
17.799999
 20
-379.674988
 41
1
 50
90.000000
 66
     1
  0
ATTRIB
  8
0
  1
COMPONENT
 40
0.000000
 41
1.000000
 50
90.000000
 72
     0
 10
0.000000
 20
0.000000
 11
0.000000
 21
0.000000
 71
     0
  2
OBJECT
 70
     9
  0
SEQEND
  0
INSERT
  8
0
  2
armech1_T
 10
24.150000
 20
-408.825012
 41
1
 50
270.000000
 66
     1
  0
ATTRIB
  8
0
  1
COMPONENT
 40
0.000000
 41
1.000000
 50
270.000000
 72
     0
 10
0.000000
 20
0.000000
 11
0.000000
 21
0.000000
 71
     0
  2
OBJECT
 70
     9
  0
SEQEND
  0
INSERT
  8
0
  2
armech1_T
 10
53.735699
 20
-419.642487
 41
1
 50
196.000000
 66
     1
  0
ATTRIB
  8
0
  1
COMPONENT
 40
0.000000
 41
1.000000
 50
196.000000
 72
     0
 10
0.000000
 20
0.000000
 11
0.000000
 21
0.000000
 71
     0
  2
OBJECT
 70
     9
  0
SEQEND
  0
INSERT
  8
0
  2
armech1_T
 10
63.174999
 20
-452.000000
 41
1
 50
180.000000
 66
     1
  0
ATTRIB
  8
0
  1
COMPONENT
 40
0.000000
 41
1.000000
 50
180.000000
 72
     0
 10
0.000000
 20
0.000000
 11
0.000000
 21
0.000000
 71
     0
  2
OBJECT
 70
     9
  0
SEQEND
  0
INSERT
  8
0
  2
armech1_T
 10
30.500000
 20
-373.325012
 41
1
 50
270.000000
 66
     1
  0
ATTRIB
  8
0
  1
COMPONENT
 40
0.000000
 41
1.000000
 50
270.000000
 72
     0
 10
0.000000
 20
0.000000
 11
0.000000
 21
0.000000
 71
     0
  2
OBJECT
 70
     9
  0
SEQEND
  0
INSERT
  8
0
  2
armech1_T
 10
30.500000
 20
-398.674988
 41
1
 50
90.000000
 66
     1
  0
ATTRIB
  8
0
  1
COMPONENT
 40
0.000000
 41
1.000000
 50
90.000000
 72
     0
 10
0.000000
 20
0.000000
 11
0.000000
 21
0.000000
 71
     0
  2
OBJECT
 70
     9
  0
SEQEND
  0
INSERT
  8
0
  2
armech1_T
 10
24.150000
 20
-379.674988
 41
1
 50
90.000000
 66
     1
  0
ATTRIB
  8
0
  1
COMPONENT
 40
0.000000
 41
1.000000
 50
90.000000
 72
     0
 10
0.000000
 20
0.000000
 11
0.000000
 21
0.000000
 71
     0
  2
OBJECT
 70
     9
  0
SEQEND
  0
INSERT
  8
0
  2
armech1_T
 10
342.000000
 20
-403.174988
 41
1
 50
90.000000
 66
     1
  0
ATTRIB
  8
0
  1
COMPONENT
 40
0.000000
 41
1.000000
 50
90.000000
 72
     0
 10
0.000000
 20
0.000000
 11
0.000000
 21
0.000000
 71
     0
  2
OBJECT
 70
     9
  0
SEQEND
  0
INSERT
  8
0
  2
d9mech_T
 10
245.000000
 20
-450.000000
 41
1
 50
270.000000
 66
     1
  0
ATTRIB
  8
MECH1
  1
12.6
 40
2.000000
 41
1.000000
 50
360.000000
 72
     4
 10
246.500000
 20
-470.500000
 11
246.500000
 21
-466.500000
 71
     0
  2
TEXT
 70
     8
  0
ATTRIB
  8
MECH1
  1
25.0
 40
2.000000
 41
1.000000
 50
270.000000
 72
     4
 10
239.250000
 20
-458.000000
 11
243.250000
 21
-458.000000
 71
     0
  2
TEXT
 70
     8
  0
ATTRIB
  8
MECH1
  1
between cntrs
 40
2.000000
 41
1.000000
 50
270.000000
 72
     4
 10
229.250000
 20
-462.750000
 11
241.250000
 21
-462.750000
 71
     0
  2
TEXT
 70
     8
  0
ATTRIB
  8
MECH1
  1
R 1.5
 40
2.000000
 41
1.000000
 50
270.000000
 72
     0
 10
249.500000
 20
-454.000000
 11
249.500000
 21
-454.000000
 71
     0
  2
TEXT
 70
     8
  0
ATTRIB
  8
MECH1
  1
2
 40
2.000000
 41
1.000000
 50
270.000000
 72
     4
 10
248.250000
 20
-451.000000
 11
248.250000
 21
-451.000000
 71
     0
  2
TEXT
 70
     8
  0
ATTRIB
  8
0
  1
COMPONENT
 40
0.000000
 41
1.000000
 50
270.000000
 72
     0
 10
0.000000
 20
0.000000
 11
0.000000
 21
0.000000
 71
     0
  2
OBJECT
 70
     9
  0
SEQEND
  0
INSERT
  8
0
  2
d9mech_T
 10
285.000000
 20
-450.000000
 41
1
 50
270.000000
 66
     1
  0
ATTRIB
  8
MECH1
  1
12.6
 40
2.000000
 41
1.000000
 50
360.000000
 72
     4
 10
286.500000
 20
-470.500000
 11
286.500000
 21
-466.500000
 71
     0
  2
TEXT
 70
     8
  0
ATTRIB
  8
MECH1
  1
25.0
 40
2.000000
 41
1.000000
 50
270.000000
 72
     4
 10
279.250000
 20
-458.000000
 11
283.250000
 21
-458.000000
 71
     0
  2
TEXT
 70
     8
  0
ATTRIB
  8
MECH1
  1
between cntrs
 40
2.000000
 41
1.000000
 50
270.000000
 72
     4
 10
269.250000
 20
-462.750000
 11
281.250000
 21
-462.750000
 71
     0
  2
TEXT
 70
     8
  0
ATTRIB
  8
MECH1
  1
R 1.5
 40
2.000000
 41
1.000000
 50
270.000000
 72
     0
 10
289.500000
 20
-454.000000
 11
289.500000
 21
-454.000000
 71
     0
  2
TEXT
 70
     8
  0
ATTRIB
  8
MECH1
  1
2
 40
2.000000
 41
1.000000
 50
270.000000
 72
     4
 10
288.250000
 20
-451.000000
 11
288.250000
 21
-451.000000
 71
     0
  2
TEXT
 70
     8
  0
ATTRIB
  8
0
  1
COMPONENT
 40
0.000000
 41
1.000000
 50
270.000000
 72
     0
 10
0.000000
 20
0.000000
 11
0.000000
 21
0.000000
 71
     0
  2
OBJECT
 70
     9
  0
SEQEND
  0
INSERT
  8
0
  2
d9mech_T
 10
225.000000
 20
-400.000000
 41
1
 50
270.000000
 66
     1
  0
ATTRIB
  8
MECH1
  1
12.6
 40
2.000000
 41
1.000000
 50
360.000000
 72
     4
 10
226.500000
 20
-420.500000
 11
226.500000
 21
-416.500000
 71
     0
  2
TEXT
 70
     8
  0
ATTRIB
  8
MECH1
  1
25.0
 40
2.000000
 41
1.000000
 50
270.000000
 72
     4
 10
219.250000
 20
-408.000000
 11
223.250000
 21
-408.000000
 71
     0
  2
TEXT
 70
     8
  0
ATTRIB
  8
MECH1
  1
between cntrs
 40
2.000000
 41
1.000000
 50
270.000000
 72
     4
 10
209.250000
 20
-412.750000
 11
221.250000
 21
-412.750000
 71
     0
  2
TEXT
 70
     8
  0
ATTRIB
  8
MECH1
  1
R 1.5
 40
2.000000
 41
1.000000
 50
270.000000
 72
     0
 10
229.500000
 20
-404.000000
 11
229.500000
 21
-404.000000
 71
     0
  2
TEXT
 70
     8
  0
ATTRIB
  8
MECH1
  1
2
 40
2.000000
 41
1.000000
 50
270.000000
 72
     4
 10
228.250000
 20
-401.000000
 11
228.250000
 21
-401.000000
 71
     0
  2
TEXT
 70
     8
  0
ATTRIB
  8
0
  1
COMPONENT
 40
0.000000
 41
1.000000
 50
270.000000
 72
     0
 10
0.000000
 20
0.000000
 11
0.000000
 21
0.000000
 71
     0
  2
OBJECT
 70
     9
  0
SEQEND
  0
INSERT
  8
0
  2
armech1_T
 10
32.825001
 20
-452.000000
 41
1
 50
0.000000
 66
     1
  0
ATTRIB
  8
0
  1
COMPONENT
 40
0.000000
 41
1.000000
 50
0.000000
 72
     0
 10
0.000000
 20
0.000000
 11
0.000000
 21
0.000000
 71
     0
  2
OBJECT
 70
     9
  0
SEQEND
  0
INSERT
  8
0
  2
d9mech_T
 10
245.000000
 20
-400.000000
 41
1
 50
270.000000
 66
     1
  0
ATTRIB
  8
MECH1
  1
12.6
 40
2.000000
 41
1.000000
 50
360.000000
 72
     4
 10
246.500000
 20
-420.500000
 11
246.500000
 21
-416.500000
 71
     0
  2
TEXT
 70
     8
  0
ATTRIB
  8
MECH1
  1
25.0
 40
2.000000
 41
1.000000
 50
270.000000
 72
     4
 10
239.250000
 20
-408.000000
 11
243.250000
 21
-408.000000
 71
     0
  2
TEXT
 70
     8
  0
ATTRIB
  8
MECH1
  1
between cntrs
 40
2.000000
 41
1.000000
 50
270.000000
 72
     4
 10
229.250000
 20
-412.750000
 11
241.250000
 21
-412.750000
 71
     0
  2
TEXT
 70
     8
  0
ATTRIB
  8
MECH1
  1
R 1.5
 40
2.000000
 41
1.000000
 50
270.000000
 72
     0
 10
249.500000
 20
-404.000000
 11
249.500000
 21
-404.000000
 71
     0
  2
TEXT
 70
     8
  0
ATTRIB
  8
MECH1
  1
2
 40
2.000000
 41
1.000000
 50
270.000000
 72
     4
 10
248.250000
 20
-401.000000
 11
248.250000
 21
-401.000000
 71
     0
  2
TEXT
 70
     8
  0
ATTRIB
  8
0
  1
COMPONENT
 40
0.000000
 41
1.000000
 50
270.000000
 72
     0
 10
0.000000
 20
0.000000
 11
0.000000
 21
0.000000
 71
     0
  2
OBJECT
 70
     9
  0
SEQEND
  0
INSERT
  8
0
  2
d9mech_T
 10
285.000000
 20
-400.000000
 41
1
 50
270.000000
 66
     1
  0
ATTRIB
  8
MECH1
  1
12.6
 40
2.000000
 41
1.000000
 50
360.000000
 72
     4
 10
286.500000
 20
-420.500000
 11
286.500000
 21
-416.500000
 71
     0
  2
TEXT
 70
     8
  0
ATTRIB
  8
MECH1
  1
25.0
 40
2.000000
 41
1.000000
 50
270.000000
 72
     4
 10
279.250000
 20
-408.000000
 11
283.250000
 21
-408.000000
 71
     0
  2
TEXT
 70
     8
  0
ATTRIB
  8
MECH1
  1
between cntrs
 40
2.000000
 41
1.000000
 50
270.000000
 72
     4
 10
269.250000
 20
-412.750000
 11
281.250000
 21
-412.750000
 71
     0
  2
TEXT
 70
     8
  0
ATTRIB
  8
MECH1
  1
R 1.5
 40
2.000000
 41
1.000000
 50
270.000000
 72
     0
 10
289.500000
 20
-404.000000
 11
289.500000
 21
-404.000000
 71
     0
  2
TEXT
 70
     8
  0
ATTRIB
  8
MECH1
  1
2
 40
2.000000
 41
1.000000
 50
270.000000
 72
     4
 10
288.250000
 20
-401.000000
 11
288.250000
 21
-401.000000
 71
     0
  2
TEXT
 70
     8
  0
ATTRIB
  8
0
  1
COMPONENT
 40
0.000000
 41
1.000000
 50
270.000000
 72
     0
 10
0.000000
 20
0.000000
 11
0.000000
 21
0.000000
 71
     0
  2
OBJECT
 70
     9
  0
SEQEND
  0
INSERT
  8
0
  2
d9mech_T
 10
305.000000
 20
-400.000000
 41
1
 50
270.000000
 66
     1
  0
ATTRIB
  8
MECH1
  1
12.6
 40
2.000000
 41
1.000000
 50
360.000000
 72
     4
 10
306.500000
 20
-420.500000
 11
306.500000
 21
-416.500000
 71
     0
  2
TEXT
 70
     8
  0
ATTRIB
  8
MECH1
  1
25.0
 40
2.000000
 41
1.000000
 50
270.000000
 72
     4
 10
299.250000
 20
-408.000000
 11
303.250000
 21
-408.000000
 71
     0
  2
TEXT
 70
     8
  0
ATTRIB
  8
MECH1
  1
between cntrs
 40
2.000000
 41
1.000000
 50
270.000000
 72
     4
 10
289.250000
 20
-412.750000
 11
301.250000
 21
-412.750000
 71
     0
  2
TEXT
 70
     8
  0
ATTRIB
  8
MECH1
  1
R 1.5
 40
2.000000
 41
1.000000
 50
270.000000
 72
     0
 10
309.500000
 20
-404.000000
 11
309.500000
 21
-404.000000
 71
     0
  2
TEXT
 70
     8
  0
ATTRIB
  8
MECH1
  1
2
 40
2.000000
 41
1.000000
 50
270.000000
 72
     4
 10
308.250000
 20
-401.000000
 11
308.250000
 21
-401.000000
 71
     0
  2
TEXT
 70
     8
  0
ATTRIB
  8
0
  1
COMPONENT
 40
0.000000
 41
1.000000
 50
270.000000
 72
     0
 10
0.000000
 20
0.000000
 11
0.000000
 21
0.000000
 71
     0
  2
OBJECT
 70
     9
  0
SEQEND
  0
INSERT
  8
0
  2
d9mech_T
 10
325.000000
 20
-400.000000
 41
1
 50
270.000000
 66
     1
  0
ATTRIB
  8
MECH1
  1
12.6
 40
2.000000
 41
1.000000
 50
360.000000
 72
     4
 10
326.500000
 20
-420.500000
 11
326.500000
 21
-416.500000
 71
     0
  2
TEXT
 70
     8
  0
ATTRIB
  8
MECH1
  1
25.0
 40
2.000000
 41
1.000000
 50
270.000000
 72
     4
 10
319.250000
 20
-408.000000
 11
323.250000
 21
-408.000000
 71
     0
  2
TEXT
 70
     8
  0
ATTRIB
  8
MECH1
  1
between cntrs
 40
2.000000
 41
1.000000
 50
270.000000
 72
     4
 10
309.250000
 20
-412.750000
 11
321.250000
 21
-412.750000
 71
     0
  2
TEXT
 70
     8
  0
ATTRIB
  8
MECH1
  1
R 1.5
 40
2.000000
 41
1.000000
 50
270.000000
 72
     0
 10
329.500000
 20
-404.000000
 11
329.500000
 21
-404.000000
 71
     0
  2
TEXT
 70
     8
  0
ATTRIB
  8
MECH1
  1
2
 40
2.000000
 41
1.000000
 50
270.000000
 72
     4
 10
328.250000
 20
-401.000000
 11
328.250000
 21
-401.000000
 71
     0
  2
TEXT
 70
     8
  0
ATTRIB
  8
0
  1
COMPONENT
 40
0.000000
 41
1.000000
 50
270.000000
 72
     0
 10
0.000000
 20
0.000000
 11
0.000000
 21
0.000000
 71
     0
  2
OBJECT
 70
     9
  0
SEQEND
  0
INSERT
  8
0
  2
d9mech_T
 10
265.000000
 20
-450.000000
 41
1
 50
270.000000
 66
     1
  0
ATTRIB
  8
MECH1
  1
12.6
 40
2.000000
 41
1.000000
 50
360.000000
 72
     4
 10
266.500000
 20
-470.500000
 11
266.500000
 21
-466.500000
 71
     0
  2
TEXT
 70
     8
  0
ATTRIB
  8
MECH1
  1
25.0
 40
2.000000
 41
1.000000
 50
270.000000
 72
     4
 10
259.250000
 20
-458.000000
 11
263.250000
 21
-458.000000
 71
     0
  2
TEXT
 70
     8
  0
ATTRIB
  8
MECH1
  1
between cntrs
 40
2.000000
 41
1.000000
 50
270.000000
 72
     4
 10
249.250000
 20
-462.750000
 11
261.250000
 21
-462.750000
 71
     0
  2
TEXT
 70
     8
  0
ATTRIB
  8
MECH1
  1
R 1.5
 40
2.000000
 41
1.000000
 50
270.000000
 72
     0
 10
269.500000
 20
-454.000000
 11
269.500000
 21
-454.000000
 71
     0
  2
TEXT
 70
     8
  0
ATTRIB
  8
MECH1
  1
2
 40
2.000000
 41
1.000000
 50
270.000000
 72
     4
 10
268.250000
 20
-451.000000
 11
268.250000
 21
-451.000000
 71
     0
  2
TEXT
 70
     8
  0
ATTRIB
  8
0
  1
COMPONENT
 40
0.000000
 41
1.000000
 50
270.000000
 72
     0
 10
0.000000
 20
0.000000
 11
0.000000
 21
0.000000
 71
     0
  2
OBJECT
 70
     9
  0
SEQEND
  0
INSERT
  8
0
  2
d9mech_T
 10
325.000000
 20
-450.000000
 41
1
 50
270.000000
 66
     1
  0
ATTRIB
  8
MECH1
  1
12.6
 40
2.000000
 41
1.000000
 50
360.000000
 72
     4
 10
326.500000
 20
-470.500000
 11
326.500000
 21
-466.500000
 71
     0
  2
TEXT
 70
     8
  0
ATTRIB
  8
MECH1
  1
25.0
 40
2.000000
 41
1.000000
 50
270.000000
 72
     4
 10
319.250000
 20
-458.000000
 11
323.250000
 21
-458.000000
 71
     0
  2
TEXT
 70
     8
  0
ATTRIB
  8
MECH1
  1
between cntrs
 40
2.000000
 41
1.000000
 50
270.000000
 72
     4
 10
309.250000
 20
-462.750000
 11
321.250000
 21
-462.750000
 71
     0
  2
TEXT
 70
     8
  0
ATTRIB
  8
MECH1
  1
R 1.5
 40
2.000000
 41
1.000000
 50
270.000000
 72
     0
 10
329.500000
 20
-454.000000
 11
329.500000
 21
-454.000000
 71
     0
  2
TEXT
 70
     8
  0
ATTRIB
  8
MECH1
  1
2
 40
2.000000
 41
1.000000
 50
270.000000
 72
     4
 10
328.250000
 20
-451.000000
 11
328.250000
 21
-451.000000
 71
     0
  2
TEXT
 70
     8
  0
ATTRIB
  8
0
  1
COMPONENT
 40
0.000000
 41
1.000000
 50
270.000000
 72
     0
 10
0.000000
 20
0.000000
 11
0.000000
 21
0.000000
 71
     0
  2
OBJECT
 70
     9
  0
SEQEND
  0
INSERT
  8
0
  2
d9mech_T
 10
305.000000
 20
-450.000000
 41
1
 50
270.000000
 66
     1
  0
ATTRIB
  8
MECH1
  1
12.6
 40
2.000000
 41
1.000000
 50
360.000000
 72
     4
 10
306.500000
 20
-470.500000
 11
306.500000
 21
-466.500000
 71
     0
  2
TEXT
 70
     8
  0
ATTRIB
  8
MECH1
  1
25.0
 40
2.000000
 41
1.000000
 50
270.000000
 72
     4
 10
299.250000
 20
-458.000000
 11
303.250000
 21
-458.000000
 71
     0
  2
TEXT
 70
     8
  0
ATTRIB
  8
MECH1
  1
between cntrs
 40
2.000000
 41
1.000000
 50
270.000000
 72
     4
 10
289.250000
 20
-462.750000
 11
301.250000
 21
-462.750000
 71
     0
  2
TEXT
 70
     8
  0
ATTRIB
  8
MECH1
  1
R 1.5
 40
2.000000
 41
1.000000
 50
270.000000
 72
     0
 10
309.500000
 20
-454.000000
 11
309.500000
 21
-454.000000
 71
     0
  2
TEXT
 70
     8
  0
ATTRIB
  8
MECH1
  1
2
 40
2.000000
 41
1.000000
 50
270.000000
 72
     4
 10
308.250000
 20
-451.000000
 11
308.250000
 21
-451.000000
 71
     0
  2
TEXT
 70
     8
  0
ATTRIB
  8
0
  1
COMPONENT
 40
0.000000
 41
1.000000
 50
270.000000
 72
     0
 10
0.000000
 20
0.000000
 11
0.000000
 21
0.000000
 71
     0
  2
OBJECT
 70
     9
  0
SEQEND
  0
INSERT
  8
0
  2
d9mech_T
 10
265.000000
 20
-400.000000
 41
1
 50
270.000000
 66
     1
  0
ATTRIB
  8
MECH1
  1
12.6
 40
2.000000
 41
1.000000
 50
360.000000
 72
     4
 10
266.500000
 20
-420.500000
 11
266.500000
 21
-416.500000
 71
     0
  2
TEXT
 70
     8
  0
ATTRIB
  8
MECH1
  1
25.0
 40
2.000000
 41
1.000000
 50
270.000000
 72
     4
 10
259.250000
 20
-408.000000
 11
263.250000
 21
-408.000000
 71
     0
  2
TEXT
 70
     8
  0
ATTRIB
  8
MECH1
  1
between cntrs
 40
2.000000
 41
1.000000
 50
270.000000
 72
     4
 10
249.250000
 20
-412.750000
 11
261.250000
 21
-412.750000
 71
     0
  2
TEXT
 70
     8
  0
ATTRIB
  8
MECH1
  1
R 1.5
 40
2.000000
 41
1.000000
 50
270.000000
 72
     0
 10
269.500000
 20
-404.000000
 11
269.500000
 21
-404.000000
 71
     0
  2
TEXT
 70
     8
  0
ATTRIB
  8
MECH1
  1
2
 40
2.000000
 41
1.000000
 50
270.000000
 72
     4
 10
268.250000
 20
-401.000000
 11
268.250000
 21
-401.000000
 71
     0
  2
TEXT
 70
     8
  0
ATTRIB
  8
0
  1
COMPONENT
 40
0.000000
 41
1.000000
 50
270.000000
 72
     0
 10
0.000000
 20
0.000000
 11
0.000000
 21
0.000000
 71
     0
  2
OBJECT
 70
     9
  0
SEQEND
  0
INSERT
  8
0
  2
d37mech_T
 10
380.000000
 20
-405.000000
 41
1
 50
0.000000
 66
     1
  0
ATTRIB
  8
MECH1
  1
R 1.5
 40
2.000000
 41
1.000000
 50
0.000000
 72
     0
 10
384.000000
 20
-400.500000
 11
384.000000
 21
-400.500000
 71
     0
  2
TEXT
 70
     8
  0
ATTRIB
  8
MECH1
  1
12.6
 40
2.000000
 41
1.000000
 50
90.000000
 72
     4
 10
396.750000
 20
-407.250000
 11
396.750000
 21
-403.250000
 71
     0
  2
TEXT
 70
     8
  0
ATTRIB
  8
MECH1
  1
63.5
 40
2.000000
 41
1.000000
 50
0.000000
 72
     4
 10
385.000000
 20
-406.250000
 11
389.000000
 21
-406.250000
 71
     0
  2
TEXT
 70
     8
  0
ATTRIB
  8
MECH1
  1
between centres
 40
2.000000
 41
1.000000
 50
0.000000
 72
     4
 10
380.750000
 20
-408.750000
 11
394.750000
 21
-408.750000
 71
     0
  2
TEXT
 70
     8
  0
ATTRIB
  8
MECH1
  1
2
 40
2.000000
 41
1.000000
 50
0.000000
 72
     4
 10
381.000000
 20
-401.750000
 11
381.000000
 21
-401.750000
 71
     0
  2
TEXT
 70
     8
  0
ATTRIB
  8
0
  1
COMPONENT
 40
0.000000
 41
1.000000
 50
0.000000
 72
     0
 10
0.000000
 20
0.000000
 11
0.000000
 21
0.000000
 71
     0
  2
OBJECT
 70
     9
  0
SEQEND
  0
INSERT
  8
0
  2
d37mech_T
 10
380.000000
 20
-475.000000
 41
1
 50
0.000000
 66
     1
  0
ATTRIB
  8
MECH1
  1
R 1.5
 40
2.000000
 41
1.000000
 50
0.000000
 72
     0
 10
384.000000
 20
-470.500000
 11
384.000000
 21
-470.500000
 71
     0
  2
TEXT
 70
     8
  0
ATTRIB
  8
MECH1
  1
12.6
 40
2.000000
 41
1.000000
 50
90.000000
 72
     4
 10
396.750000
 20
-477.250000
 11
396.750000
 21
-473.250000
 71
     0
  2
TEXT
 70
     8
  0
ATTRIB
  8
MECH1
  1
63.5
 40
2.000000
 41
1.000000
 50
0.000000
 72
     4
 10
385.000000
 20
-476.250000
 11
389.000000
 21
-476.250000
 71
     0
  2
TEXT
 70
     8
  0
ATTRIB
  8
MECH1
  1
between centres
 40
2.000000
 41
1.000000
 50
0.000000
 72
     4
 10
380.750000
 20
-478.750000
 11
394.750000
 21
-478.750000
 71
     0
  2
TEXT
 70
     8
  0
ATTRIB
  8
MECH1
  1
2
 40
2.000000
 41
1.000000
 50
0.000000
 72
     4
 10
381.000000
 20
-471.750000
 11
381.000000
 21
-471.750000
 71
     0
  2
TEXT
 70
     8
  0
ATTRIB
  8
0
  1
COMPONENT
 40
0.000000
 41
1.000000
 50
0.000000
 72
     0
 10
0.000000
 20
0.000000
 11
0.000000
 21
0.000000
 71
     0
  2
OBJECT
 70
     9
  0
SEQEND
  0
INSERT
  8
0
  2
d37mech_T
 10
380.000000
 20
-440.000000
 41
1
 50
0.000000
 66
     1
  0
ATTRIB
  8
MECH1
  1
R 1.5
 40
2.000000
 41
1.000000
 50
0.000000
 72
     0
 10
384.000000
 20
-435.500000
 11
384.000000
 21
-435.500000
 71
     0
  2
TEXT
 70
     8
  0
ATTRIB
  8
MECH1
  1
12.6
 40
2.000000
 41
1.000000
 50
90.000000
 72
     4
 10
396.750000
 20
-442.250000
 11
396.750000
 21
-438.250000
 71
     0
  2
TEXT
 70
     8
  0
ATTRIB
  8
MECH1
  1
63.5
 40
2.000000
 41
1.000000
 50
0.000000
 72
     4
 10
385.000000
 20
-441.250000
 11
389.000000
 21
-441.250000
 71
     0
  2
TEXT
 70
     8
  0
ATTRIB
  8
MECH1
  1
between centres
 40
2.000000
 41
1.000000
 50
0.000000
 72
     4
 10
380.750000
 20
-443.750000
 11
394.750000
 21
-443.750000
 71
     0
  2
TEXT
 70
     8
  0
ATTRIB
  8
MECH1
  1
2
 40
2.000000
 41
1.000000
 50
0.000000
 72
     4
 10
381.000000
 20
-436.750000
 11
381.000000
 21
-436.750000
 71
     0
  2
TEXT
 70
     8
  0
ATTRIB
  8
0
  1
COMPONENT
 40
0.000000
 41
1.000000
 50
0.000000
 72
     0
 10
0.000000
 20
0.000000
 11
0.000000
 21
0.000000
 71
     0
  2
OBJECT
 70
     9
  0
SEQEND
  0
INSERT
  8
0
  2
d37mech_T
 10
120.000000
 20
-405.000000
 41
1
 50
0.000000
 66
     1
  0
ATTRIB
  8
MECH1
  1
R 1.5
 40
2.000000
 41
1.000000
 50
0.000000
 72
     0
 10
124.000000
 20
-400.500000
 11
124.000000
 21
-400.500000
 71
     0
  2
TEXT
 70
     8
  0
ATTRIB
  8
MECH1
  1
12.6
 40
2.000000
 41
1.000000
 50
90.000000
 72
     4
 10
136.750000
 20
-407.250000
 11
136.750000
 21
-403.250000
 71
     0
  2
TEXT
 70
     8
  0
ATTRIB
  8
MECH1
  1
63.5
 40
2.000000
 41
1.000000
 50
0.000000
 72
     4
 10
125.000000
 20
-406.250000
 11
129.000000
 21
-406.250000
 71
     0
  2
TEXT
 70
     8
  0
ATTRIB
  8
MECH1
  1
between centres
 40
2.000000
 41
1.000000
 50
0.000000
 72
     4
 10
120.750000
 20
-408.750000
 11
134.750000
 21
-408.750000
 71
     0
  2
TEXT
 70
     8
  0
ATTRIB
  8
MECH1
  1
2
 40
2.000000
 41
1.000000
 50
0.000000
 72
     4
 10
121.000000
 20
-401.750000
 11
121.000000
 21
-401.750000
 71
     0
  2
TEXT
 70
     8
  0
ATTRIB
  8
0
  1
COMPONENT
 40
0.000000
 41
1.000000
 50
0.000000
 72
     0
 10
0.000000
 20
0.000000
 11
0.000000
 21
0.000000
 71
     0
  2
OBJECT
 70
     9
  0
SEQEND
  0
TEXT
  8
MECH1
  1
LHCb VELO INTERLOCK CRATE - BACK PANEL
 40
6.000000
 41
1.000000
 50
0
 72
     1
 73
     2
 10
80.000000
 20
-521.000000
 11
194.000000
 21
-521.000000
 71
     0
  0
TEXT
  8
MECH1
  1
35.50mm
 40
3.000000
 41
1.000000
 50
90
 72
     0
 73
     1
 10
0.000000
 20
0.000000
 11
25.650000
 21
-402.125000
 71
     0
  0
LINE
  8
MECH1
  6
CONTINUOUS
 10
24.150000
 20
-408.825000
 11
24.150000
 21
-404.375000
  0
LINE
  8
MECH1
  6
CONTINUOUS
 10
24.150000
 20
-379.675000
 11
24.150000
 21
-384.125000
  0
LINE
  8
MECH1
  6
CONTINUOUS
 10
20.975000
 20
-412.000000
 11
39.238000
 21
-412.000000
  0
TEXT
  8
MECH1
  1
53.00mm
 40
3.000000
 41
1.000000
 50
90
 72
     0
 73
     1
 10
0.000000
 20
0.000000
 11
19.300000
 21
-410.875000
 71
     0
  0
LINE
  8
MECH1
  6
CONTINUOUS
 10
17.800000
 20
-426.325000
 11
17.800000
 21
-413.125000
  0
LINE
  8
MECH1
  6
CONTINUOUS
 10
17.800000
 20
-379.675000
 11
17.800000
 21
-392.875000
  0
LINE
  8
MECH1
  6
CONTINUOUS
 10
14.625000
 20
-429.500000
 11
35.238000
 21
-429.500000
  0
TEXT
  8
MECH1
  1
85.00mm
 40
3.000000
 41
1.000000
 50
90
 72
     0
 73
     1
 10
0.000000
 20
0.000000
 11
12.950000
 21
-426.875000
 71
     0
  0
LINE
  8
MECH1
  6
CONTINUOUS
 10
11.450000
 20
-458.325000
 11
11.450000
 21
-429.125000
  0
LINE
  8
MECH1
  6
CONTINUOUS
 10
11.450000
 20
-379.675000
 11
11.450000
 21
-408.875000
  0
LINE
  8
MECH1
  6
CONTINUOUS
 10
8.275000
 20
-461.500000
 11
35.238000
 21
-461.500000
  0
LINE
  8
MECH1
  6
CONTINUOUS
 10
8.275000
 20
-376.500000
 11
35.238000
 21
-376.500000
  0
TEXT
  8
MECH1
  1
19.00mm
 40
3.000000
 41
1.000000
 50
90
 72
     0
 73
     1
 10
0.000000
 20
0.000000
 11
32.000000
 21
-423.025000
 71
     0
  0
LINE
  8
MECH1
  6
CONTINUOUS
 10
30.500000
 20
-398.675000
 11
30.500000
 21
-405.025000
  0
LINE
  8
MECH1
  6
CONTINUOUS
 10
30.500000
 20
-373.325000
 11
30.500000
 21
-366.975000
  0
LINE
  8
MECH1
  6
CONTINUOUS
 10
27.325000
 20
-395.500000
 11
39.238000
 21
-395.500000
  0
TEXT
  8
MECH1
  1
13.00mm
 40
3.000000
 41
1.000000
 50
0
 72
     0
 73
     1
 10
0.000000
 20
0.000000
 11
60.775000
 21
-439.000000
 71
     0
  0
LINE
  8
MECH1
  6
CONTINUOUS
 10
52.175000
 20
-437.500000
 11
58.525000
 21
-437.500000
  0
LINE
  8
MECH1
  6
CONTINUOUS
 10
32.825000
 20
-437.500000
 11
26.475000
 21
-437.500000
  0
LINE
  8
MECH1
  6
CONTINUOUS
 10
49.000000
 20
-440.675000
 11
49.000000
 21
-421.000000
  0
LINE
  8
MECH1
  6
CONTINUOUS
 10
36.000000
 20
-440.675000
 11
36.000000
 21
-430.262000
  0
TEXT
  8
MECH1
  1
24.00mm
 40
3.000000
 41
1.000000
 50
0
 72
     0
 73
     1
 10
0.000000
 20
0.000000
 11
71.775000
 21
-453.500000
 71
     0
  0
LINE
  8
MECH1
  6
CONTINUOUS
 10
63.175000
 20
-452.000000
 11
69.525000
 21
-452.000000
  0
LINE
  8
MECH1
  6
CONTINUOUS
 10
32.825000
 20
-452.000000
 11
26.475000
 21
-452.000000
  0
LINE
  8
MECH1
  6
CONTINUOUS
 10
60.000000
 20
-448.825000
 11
60.000000
 21
-460.738000
  0
LINE
  8
MECH1
  6
CONTINUOUS
 10
36.000000
 20
-448.825000
 11
36.000000
 21
-460.738000
  0
TEXT
  8
MECH1
  1
R1.50mm 
 40
3.000000
 41
1.000000
 50
0
 72
     0
 73
     1
 10
0.000000
 20
0.000000
 11
71.750000
 21
-429.500000
 71
     0
  0
LINE
  8
MECH1
  6
CONTINUOUS
 10
69.500000
 20
-428.000000
 11
66.500000
 21
-428.000000
  0
LINE
  8
MECH1
  6
CONTINUOUS
 10
66.500000
 20
-428.000000
 11
59.909500
 21
-430.487000
  0
LINE
  8
MECH1
  6
CONTINUOUS
 10
56.926000
 20
-431.572900
 11
58.500000
 21
-431.000000
  0
TEXT
  8
MECH1
  1
%%c 3.50mm
 40
3.000000
 41
1.000000
 50
0
 72
     0
 73
     1
 10
0.000000
 20
0.000000
 11
59.250000
 21
-421.000000
 71
     0
  0
LINE
  8
MECH1
  6
CONTINUOUS
 10
57.000000
 20
-419.500000
 11
54.000000
 21
-419.500000
  0
LINE
  8
MECH1
  6
CONTINUOUS
 10
54.000000
 20
-419.500000
 11
53.735700
 21
-419.642500
  0
TEXT
  8
MECH1
  1
44.50mm
 40
3.000000
 41
1.000000
 50
90
 72
     0
 73
     1
 10
0.000000
 20
0.000000
 11
91.000000
 21
-406.625000
 71
     0
  0
LINE
  8
MECH1
  6
CONTINUOUS
 10
89.500000
 20
-417.825000
 11
89.500000
 21
-408.875000
  0
LINE
  8
MECH1
  6
CONTINUOUS
 10
89.500000
 20
-379.675000
 11
89.500000
 21
-388.625000
  0
LINE
  8
MECH1
  6
CONTINUOUS
 10
92.675000
 20
-421.000000
 11
49.000000
 21
-421.000000
  0
LINE
  8
MECH1
  6
CONTINUOUS
 10
92.675000
 20
-376.500000
 11
36.762000
 21
-376.500000
  0
TEXT
  8
MECH1
  1
84.00mm
 40
3.000000
 41
1.000000
 50
0
 72
     0
 73
     1
 10
0.000000
 20
0.000000
 11
70.125000
 21
-352.500000
 71
     0
  0
LINE
  8
MECH1
  6
CONTINUOUS
 10
116.825000
 20
-351.000000
 11
88.125000
 21
-351.000000
  0
LINE
  8
MECH1
  6
CONTINUOUS
 10
39.175000
 20
-351.000000
 11
67.875000
 21
-351.000000
  0
LINE
  8
MECH1
  6
CONTINUOUS
 10
120.000000
 20
-347.825000
 11
120.000000
 21
-399.238000
  0
TEXT
  8
MECH1
  1
24.00mm
 40
3.000000
 41
1.000000
 50
0
 72
     0
 73
     1
 10
0.000000
 20
0.000000
 11
71.775000
 21
-362.150000
 71
     0
  0
LINE
  8
MECH1
  6
CONTINUOUS
 10
63.175000
 20
-360.650000
 11
69.525000
 21
-360.650000
  0
LINE
  8
MECH1
  6
CONTINUOUS
 10
32.825000
 20
-360.650000
 11
26.475000
 21
-360.650000
  0
LINE
  8
MECH1
  6
CONTINUOUS
 10
60.000000
 20
-357.475000
 11
60.000000
 21
-394.738000
  0
LINE
  8
MECH1
  6
CONTINUOUS
 10
36.000000
 20
-357.475000
 11
36.000000
 21
-375.738000
  0
TEXT
  8
MECH1
  1
4.00mm
 40
3.000000
 41
1.000000
 50
0
 72
     0
 73
     1
 10
0.000000
 20
0.000000
 11
51.775000
 21
-368.500000
 71
     0
  0
LINE
  8
MECH1
  6
CONTINUOUS
 10
43.175000
 20
-367.000000
 11
49.525000
 21
-367.000000
  0
LINE
  8
MECH1
  6
CONTINUOUS
 10
32.825000
 20
-367.000000
 11
26.475000
 21
-367.000000
  0
LINE
  8
MECH1
  6
CONTINUOUS
 10
40.000000
 20
-363.825000
 11
40.000000
 21
-394.738000
  0
TEXT
  8
MECH1
  1
344.00mm
 40
3.000000
 41
1.000000
 50
0
 72
     0
 73
     1
 10
0.000000
 20
0.000000
 11
199.000000
 21
-308.050000
 71
     0
  0
LINE
  8
MECH1
  6
CONTINUOUS
 10
376.825000
 20
-306.550000
 11
219.250000
 21
-306.550000
  0
LINE
  8
MECH1
  6
CONTINUOUS
 10
39.175000
 20
-306.550000
 11
196.750000
 21
-306.550000
  0
LINE
  8
MECH1
  6
CONTINUOUS
 10
380.000000
 20
-303.375000
 11
380.000000
 21
-404.238000
  0
LINE
  8
MECH1
  6
CONTINUOUS
 10
36.000000
 20
-303.375000
 11
36.000000
 21
-375.738000
  0
TEXT
  8
MECH1
  1
289.00mm
 40
3.000000
 41
1.000000
 50
0
 72
     0
 73
     1
 10
0.000000
 20
0.000000
 11
171.500000
 21
-314.400000
 71
     0
  0
LINE
  8
MECH1
  6
CONTINUOUS
 10
321.825000
 20
-312.900000
 11
191.750000
 21
-312.900000
  0
LINE
  8
MECH1
  6
CONTINUOUS
 10
39.175000
 20
-312.900000
 11
169.250000
 21
-312.900000
  0
LINE
  8
MECH1
  6
CONTINUOUS
 10
325.000000
 20
-309.725000
 11
325.000000
 21
-399.238000
  0
TEXT
  8
MECH1
  1
269.00mm
 40
3.000000
 41
1.000000
 50
0
 72
     0
 73
     1
 10
0.000000
 20
0.000000
 11
161.500000
 21
-320.750000
 71
     0
  0
LINE
  8
MECH1
  6
CONTINUOUS
 10
301.825000
 20
-319.250000
 11
181.750000
 21
-319.250000
  0
LINE
  8
MECH1
  6
CONTINUOUS
 10
39.175000
 20
-319.250000
 11
159.250000
 21
-319.250000
  0
LINE
  8
MECH1
  6
CONTINUOUS
 10
305.000000
 20
-316.075000
 11
305.000000
 21
-399.238000
  0
TEXT
  8
MECH1
  1
249.00mm
 40
3.000000
 41
1.000000
 50
0
 72
     0
 73
     1
 10
0.000000
 20
0.000000
 11
151.500000
 21
-327.100000
 71
     0
  0
LINE
  8
MECH1
  6
CONTINUOUS
 10
281.825000
 20
-325.600000
 11
171.750000
 21
-325.600000
  0
LINE
  8
MECH1
  6
CONTINUOUS
 10
39.175000
 20
-325.600000
 11
149.250000
 21
-325.600000
  0
LINE
  8
MECH1
  6
CONTINUOUS
 10
285.000000
 20
-322.425000
 11
285.000000
 21
-399.238000
  0
TEXT
  8
MECH1
  1
229.00mm
 40
3.000000
 41
1.000000
 50
0
 72
     0
 73
     1
 10
0.000000
 20
0.000000
 11
141.500000
 21
-333.450000
 71
     0
  0
LINE
  8
MECH1
  6
CONTINUOUS
 10
261.825000
 20
-331.950000
 11
161.750000
 21
-331.950000
  0
LINE
  8
MECH1
  6
CONTINUOUS
 10
39.175000
 20
-331.950000
 11
139.250000
 21
-331.950000
  0
LINE
  8
MECH1
  6
CONTINUOUS
 10
265.000000
 20
-328.775000
 11
265.000000
 21
-399.238000
  0
TEXT
  8
MECH1
  1
209.00mm
 40
3.000000
 41
1.000000
 50
0
 72
     0
 73
     1
 10
0.000000
 20
0.000000
 11
131.500000
 21
-339.800000
 71
     0
  0
LINE
  8
MECH1
  6
CONTINUOUS
 10
241.825000
 20
-338.300000
 11
151.750000
 21
-338.300000
  0
LINE
  8
MECH1
  6
CONTINUOUS
 10
39.175000
 20
-338.300000
 11
129.250000
 21
-338.300000
  0
LINE
  8
MECH1
  6
CONTINUOUS
 10
245.000000
 20
-335.125000
 11
245.000000
 21
-399.238000
  0
TEXT
  8
MECH1
  1
189.00mm
 40
3.000000
 41
1.000000
 50
0
 72
     0
 73
     1
 10
0.000000
 20
0.000000
 11
121.500000
 21
-346.150000
 71
     0
  0
LINE
  8
MECH1
  6
CONTINUOUS
 10
221.825000
 20
-344.650000
 11
141.750000
 21
-344.650000
  0
LINE
  8
MECH1
  6
CONTINUOUS
 10
39.175000
 20
-344.650000
 11
119.250000
 21
-344.650000
  0
LINE
  8
MECH1
  6
CONTINUOUS
 10
225.000000
 20
-341.475000
 11
225.000000
 21
-399.238000
  0
TEXT
  8
MECH1
  1
23.50mm
 40
3.000000
 41
1.000000
 50
90
 72
     0
 73
     1
 10
0.000000
 20
0.000000
 11
343.500000
 21
-427.525000
 71
     0
  0
LINE
  8
MECH1
  6
CONTINUOUS
 10
342.000000
 20
-403.175000
 11
342.000000
 21
-409.525000
  0
LINE
  8
MECH1
  6
CONTINUOUS
 10
342.000000
 20
-373.325000
 11
342.000000
 21
-366.975000
  0
LINE
  8
MECH1
  6
CONTINUOUS
 10
345.175000
 20
-400.000000
 11
325.762000
 21
-400.000000
  0
TEXT
  8
MECH1
  1
73.50mm
 40
3.000000
 41
1.000000
 50
90
 72
     0
 73
     1
 10
0.000000
 20
0.000000
 11
349.850000
 21
-421.125000
 71
     0
  0
LINE
  8
MECH1
  6
CONTINUOUS
 10
348.350000
 20
-446.825000
 11
348.350000
 21
-423.375000
  0
LINE
  8
MECH1
  6
CONTINUOUS
 10
348.350000
 20
-379.675000
 11
348.350000
 21
-403.125000
  0
LINE
  8
MECH1
  6
CONTINUOUS
 10
351.525000
 20
-450.000000
 11
325.762000
 21
-450.000000
  0
TEXT
  8
MECH1
  1
98.50mm
 40
3.000000
 41
1.000000
 50
90
 72
     0
 73
     1
 10
0.000000
 20
0.000000
 11
356.200000
 21
-433.625000
 71
     0
  0
LINE
  8
MECH1
  6
CONTINUOUS
 10
354.700000
 20
-471.825000
 11
354.700000
 21
-435.875000
  0
LINE
  8
MECH1
  6
CONTINUOUS
 10
354.700000
 20
-379.675000
 11
354.700000
 21
-415.625000
  0
LINE
  8
MECH1
  6
CONTINUOUS
 10
351.525000
 20
-475.000000
 11
379.238000
 21
-475.000000
  0
TEXT
  8
MECH1
  1
63.50mm
 40
3.000000
 41
1.000000
 50
90
 72
     0
 73
     1
 10
0.000000
 20
0.000000
 11
362.550000
 21
-416.125000
 71
     0
  0
LINE
  8
MECH1
  6
CONTINUOUS
 10
361.050000
 20
-436.825000
 11
361.050000
 21
-418.375000
  0
LINE
  8
MECH1
  6
CONTINUOUS
 10
361.050000
 20
-379.675000
 11
361.050000
 21
-398.125000
  0
LINE
  8
MECH1
  6
CONTINUOUS
 10
357.875000
 20
-440.000000
 11
379.238000
 21
-440.000000
  0
TEXT
  8
MECH1
  1
28.50mm
 40
3.000000
 41
1.000000
 50
90
 72
     0
 73
     1
 10
0.000000
 20
0.000000
 11
368.900000
 21
-398.625000
 71
     0
  0
LINE
  8
MECH1
  6
CONTINUOUS
 10
367.400000
 20
-401.825000
 11
367.400000
 21
-400.875000
  0
LINE
  8
MECH1
  6
CONTINUOUS
 10
367.400000
 20
-379.675000
 11
367.400000
 21
-380.625000
  0
LINE
  8
MECH1
  6
CONTINUOUS
 10
364.225000
 20
-405.000000
 11
379.238000
 21
-405.000000
  0
LINE
  8
MECH1
  6
CONTINUOUS
 10
370.575000
 20
-376.500000
 11
339.262000
 21
-376.500000
  0
LINE
  8
MDRL
  6
CONTINUOUS
 10
58.500000
 20
-412.000000
 11
41.500000
 21
-412.000000
  0
LINE
  8
MDRL
  6
CONTINUOUS
 10
60.000000
 20
-397.000000
 11
60.000000
 21
-410.500000
  0
LINE
  8
MDRL
  6
CONTINUOUS
 10
40.000000
 20
-410.500000
 11
40.000000
 21
-397.000000
  0
LINE
  8
MDRL
  6
CONTINUOUS
 10
41.500000
 20
-395.500000
 11
58.500000
 21
-395.500000
  0
LINE
  8
MDRL
  6
CONTINUOUS
 10
36.000000
 20
-461.500000
 11
58.500000
 21
-461.500000
  0
LINE
  8
MDRL
  6
CONTINUOUS
 10
60.000000
 20
-460.000000
 11
60.000000
 21
-431.000000
  0
LINE
  8
MDRL
  6
CONTINUOUS
 10
325.000000
 20
-451.500000
 11
325.000000
 21
-450.000000
  0
LINE
  8
MDRL
  6
CONTINUOUS
 10
305.000000
 20
-452.000000
 11
305.000000
 21
-450.500000
  0
LINE
  8
MDRL
  6
CONTINUOUS
 10
285.000000
 20
-451.500000
 11
285.000000
 21
-450.000000
  0
LINE
  8
MDRL
  6
CONTINUOUS
 10
265.000000
 20
-451.500000
 11
265.000000
 21
-450.000000
  0
LINE
  8
MDRL
  6
CONTINUOUS
 10
245.000000
 20
-450.500000
 11
245.000000
 21
-451.500000
  0
LINE
  8
MDRL
  6
CONTINUOUS
 10
245.000000
 20
-451.500000
 11
245.500000
 21
-452.000000
  0
LINE
  8
MDRL
  6
CONTINUOUS
 10
245.500000
 20
-452.000000
 11
245.000000
 21
-450.500000
  0
LINE
  8
MDRL
  6
CONTINUOUS
 10
225.000000
 20
-452.000000
 11
225.000000
 21
-450.500000
  0
LINE
  8
MDRL
  6
CONTINUOUS
 10
325.000000
 20
-402.500000
 11
325.000000
 21
-400.000000
  0
LINE
  8
MDRL
  6
CONTINUOUS
 10
305.000000
 20
-402.500000
 11
305.000000
 21
-400.000000
  0
LINE
  8
MDRL
  6
CONTINUOUS
 10
225.000000
 20
-403.500000
 11
225.000000
 21
-400.500000
  0
LINE
  8
MDRL
  6
CONTINUOUS
 10
245.000000
 20
-402.000000
 11
245.000000
 21
-400.000000
  0
LINE
  8
MDRL
  6
CONTINUOUS
 10
265.000000
 20
-403.000000
 11
265.000000
 21
-400.000000
  0
LINE
  8
MDRL
  6
CONTINUOUS
 10
285.000000
 20
-403.000000
 11
285.000000
 21
-400.000000
  0
LINE
  8
MDRL
  6
CONTINUOUS
 10
265.000000
 20
-397.000000
 11
265.000000
 21
-400.000000
  0
LINE
  8
MDRL
  6
CONTINUOUS
 10
245.000000
 20
-395.500000
 11
245.000000
 21
-400.000000
  0
LINE
  8
MDRL
  6
CONTINUOUS
 10
225.000000
 20
-395.500000
 11
225.000000
 21
-400.000000
  0
LINE
  8
MDRL
  6
CONTINUOUS
 10
123.000000
 20
-400.000000
 11
120.000000
 21
-400.000000
  0
LINE
  8
MDRL
  6
CONTINUOUS
 10
382.500000
 20
-475.000000
 11
380.000000
 21
-475.000000
  0
LINE
  8
MDRL
  6
CONTINUOUS
 10
382.000000
 20
-440.000000
 11
380.000000
 21
-440.000000
  0
LINE
  8
MDRL
  6
CONTINUOUS
 10
382.500000
 20
-405.000000
 11
380.000000
 21
-405.000000
  0
LINE
  8
MDRL
  6
CONTINUOUS
 10
121.500000
 20
-470.000000
 11
120.000000
 21
-470.000000
  0
LINE
  8
MDRL
  6
CONTINUOUS
 10
462.500000
 20
-504.500000
 11
454.000000
 21
-504.500000
  0
LINE
  8
MDRL
  6
CONTINUOUS
 10
454.000000
 20
-504.500000
 11
438.000000
 21
-504.500000
  0
LINE
  8
MDRL
  6
CONTINUOUS
 10
36.000000
 20
-504.500000
 11
36.000000
 21
-461.500000
  0
LINE
  8
MDRL
  6
CONTINUOUS
 10
438.000000
 20
-504.500000
 11
67.500000
 21
-504.500000
  0
LINE
  8
MDRL
  6
CONTINUOUS
 10
67.500000
 20
-504.500000
 11
51.500000
 21
-504.500000
  0
LINE
  8
MDRL
  6
CONTINUOUS
 10
51.500000
 20
-504.500000
 11
36.000000
 21
-504.500000
  0
LINE
  8
MDRL
  6
CONTINUOUS
 10
462.500000
 20
-376.500000
 11
462.500000
 21
-504.500000
  0
LINE
  8
MDRL
  6
CONTINUOUS
 10
36.000000
 20
-376.500000
 11
462.500000
 21
-376.500000
  0
LINE
  8
MDRL
  6
CONTINUOUS
 10
36.000000
 20
-429.500000
 11
36.000000
 21
-376.500000
  0
LINE
  8
MDRL
  6
CONTINUOUS
 10
58.500000
 20
-429.500000
 11
36.000000
 21
-429.500000
  0
CIRCLE
  8
MDRL
  6
CONTINUOUS
 10
49.000000
 20
-421.000000
 40
1.750000
  0
ARC
  8
MDRL
  6
CONTINUOUS
 10
58.500000
 20
-431.000000
 40
1.500000
 50
0
 51
90
  0
ARC
  8
MDRL
  6
CONTINUOUS
 10
58.500000
 20
-460.000000
 40
1.500000
 50
270
 51
0
  0
ARC
  8
MDRL
  6
CONTINUOUS
 10
58.500000
 20
-410.500000
 40
1.500000
 50
270
 51
0
  0
ARC
  8
MDRL
  6
CONTINUOUS
 10
41.500000
 20
-410.500000
 40
1.500000
 50
180
 51
270
  0
ARC
  8
MDRL
  6
CONTINUOUS
 10
41.500000
 20
-397.000000
 40
1.500000
 50
90
 51
180
  0
ARC
  8
MDRL
  6
CONTINUOUS
 10
58.500000
 20
-397.000000
 40
1.500000
 50
0
 51
90
  0
TEXT
  8
MDRL
  1
R1.50mm 
 40
3.000000
 41
1.000000
 50
0
 72
     0
 73
     1
 10
0.000000
 20
0.000000
 11
51.750000
 21
-408.000000
 71
     0
  0
LINE
  8
MDRL
  6
CONTINUOUS
 10
49.500000
 20
-406.500000
 11
46.500000
 21
-406.500000
  0
LINE
  8
MDRL
  6
CONTINUOUS
 10
46.500000
 20
-406.500000
 11
42.682000
 21
-409.576500
  0
LINE
  8
MDRL
  6
CONTINUOUS
 10
40.180100
 20
-411.531200
 11
41.500000
 21
-410.500000
  0
ENDSEC
  0
EOF
