999
Created 11/9/2005 9:44 by PCAD/ALTIUM DXFOUT translator, Version 8.7
999
PCAD PCB
  0
SECTION
  2
HEADER
  9
$ACADVER
  1
AC1009
  9
$SNAPMODE
 70
     1
  9
$SNAPUNIT
 10
0.05
 20
0.05
  9
$SNAPBASE
 10
0.0
 20
0.0
  9
$SNAPANG
 50
0.0
  9
$SNAPSTYLE
 70
     0
  9
$SNAPISOPAIR
 70
     0
  9
$GRIDMODE
 70
     0
  9
$GRIDUNIT
 10
0.05
 20
0.05
  9
$COORDS
 70
     1
  9
$FLATLAND
 70
     1
  0
ENDSEC
  0
SECTION
  2
TABLES
  0
TABLE
  2
LTYPE
 70
     3
  0
LTYPE
  2
CONTINUOUS
 70
    64
  3
Solid line
 72
    65
 73
     0
 40
0.0
  0
LTYPE
  2
DASHED
 70
    64
  3
Dashed line
 72
    65
 73
     2
 40
0.2
 49
0.1
 49
-0.1
  0
LTYPE
  2
DOT
 70
    64
  3
Dotted line
 72
    65
 73
     2
 40
0.1
 49
0.0
 49
-0.1
  0
ENDTAB
  0
TABLE
  2
LAYER
 70
    47
  0
LAYER
  2
0
 70
     0
 62
     1
  6
CONTINUOUS
  0
LAYER
  2
TOP
 70
     0
 62
     1
  6
CONTINUOUS
  0
LAYER
  2
BOTTOM
 70
     0
 62
     2
  6
CONTINUOUS
  0
LAYER
  2
BOTH
 70
     0
 62
    14
  6
CONTINUOUS
  0
LAYER
  2
ETCHTP
 70
     0
 62
    14
  6
CONTINUOUS
  0
LAYER
  2
ETCHBT
 70
     0
 62
    13
  6
CONTINUOUS
  0
LAYER
  2
ETCHTB
 70
     0
 62
     4
  6
CONTINUOUS
  0
ENDTAB
  0
TABLE
  2
STYLE
 70
     3
  0
STYLE
  2
TXT
 70
     0
 40
0.0
 41
1.0
 50
0.0
 71
     0
 42
0.125
  3
TXT
  4

  0
ENDTAB
  0
TABLE
  2
VIEW
 70
     0
  0
ENDTAB
  0
ENDSEC
  0
SECTION
  2
BLOCKS
  0
BLOCK
  2
PLYG0
 70
     0
 10
0.000000
 20
0.000000
  0
ATTDEF
  8
0
 10
0.00
 20
0.00
 40
0.025
  1
SOLID
  2
FILL_PATTERN
  3
attribute ?
 70
     9
  0
ATTDEF
  8
0
 10
0.00
 20
0.00
 40
0.025
  1
POLYGON
  2
OBJECT
  3
attribute ?
 70
     9
  0
POLYLINE
  8
ETCHTB
 66
     1
 70
     1
 40
0.100000
 41
0.100000
  6
CONTINUOUS
  0
VERTEX
  8
ETCHTB
 10
16.500000
 20
180.600000
  0
VERTEX
  8
ETCHTB
 10
19.700000
 20
180.600000
  0
VERTEX
  8
ETCHTB
 10
23.100000
 20
181.800000
  0
VERTEX
  8
ETCHTB
 10
24.300000
 20
181.800000
  0
VERTEX
  8
ETCHTB
 10
24.300000
 20
174.400000
  0
VERTEX
  8
ETCHTB
 10
23.100000
 20
174.400000
  0
VERTEX
  8
ETCHTB
 10
19.700000
 20
175.600000
  0
VERTEX
  8
ETCHTB
 10
16.500000
 20
175.600000
  0
SEQEND
  0
ENDBLK
  0
BLOCK
  2
PLYG1
 70
     0
 10
0.000000
 20
0.000000
  0
ATTDEF
  8
0
 10
0.00
 20
0.00
 40
0.025
  1
SOLID
  2
FILL_PATTERN
  3
attribute ?
 70
     9
  0
ATTDEF
  8
0
 10
0.00
 20
0.00
 40
0.025
  1
POLYGON
  2
OBJECT
  3
attribute ?
 70
     9
  0
POLYLINE
  8
ETCHTB
 66
     1
 70
     1
 40
0.100000
 41
0.100000
  6
CONTINUOUS
  0
VERTEX
  8
ETCHTB
 10
43.500000
 20
180.400000
  0
VERTEX
  8
ETCHTB
 10
46.700000
 20
180.700000
  0
VERTEX
  8
ETCHTB
 10
50.100000
 20
181.800000
  0
VERTEX
  8
ETCHTB
 10
51.300000
 20
181.800000
  0
VERTEX
  8
ETCHTB
 10
51.300000
 20
174.400000
  0
VERTEX
  8
ETCHTB
 10
50.100000
 20
174.400000
  0
VERTEX
  8
ETCHTB
 10
46.700000
 20
175.500000
  0
VERTEX
  8
ETCHTB
 10
43.500000
 20
175.800000
  0
SEQEND
  0
ENDBLK
  0
BLOCK
  2
PLYG2
 70
     0
 10
0.000000
 20
0.000000
  0
ATTDEF
  8
0
 10
0.00
 20
0.00
 40
0.025
  1
SOLID
  2
FILL_PATTERN
  3
attribute ?
 70
     9
  0
ATTDEF
  8
0
 10
0.00
 20
0.00
 40
0.025
  1
POLYGON
  2
OBJECT
  3
attribute ?
 70
     9
  0
POLYLINE
  8
ETCHBT
 66
     1
 70
     1
 40
0.400000
 41
0.400000
  6
CONTINUOUS
  0
VERTEX
  8
ETCHBT
 10
46.500000
 20
128.800000
  0
VERTEX
  8
ETCHBT
 10
52.300000
 20
128.800000
  0
VERTEX
  8
ETCHBT
 10
52.300000
 20
120.000000
  0
VERTEX
  8
ETCHBT
 10
46.500000
 20
120.000000
  0
SEQEND
  0
ENDBLK
  0
BLOCK
  2
PLYG3
 70
     0
 10
0.000000
 20
0.000000
  0
ATTDEF
  8
0
 10
0.00
 20
0.00
 40
0.025
  1
SOLID
  2
FILL_PATTERN
  3
attribute ?
 70
     9
  0
ATTDEF
  8
0
 10
0.00
 20
0.00
 40
0.025
  1
POLYGON
  2
OBJECT
  3
attribute ?
 70
     9
  0
POLYLINE
  8
ETCHBT
 66
     1
 70
     1
 40
0.400000
 41
0.400000
  6
CONTINUOUS
  0
VERTEX
  8
ETCHBT
 10
29.300000
 20
116.400000
  0
VERTEX
  8
ETCHBT
 10
21.900000
 20
116.400000
  0
VERTEX
  8
ETCHBT
 10
21.900000
 20
132.400000
  0
VERTEX
  8
ETCHBT
 10
29.300000
 20
132.400000
  0
SEQEND
  0
ENDBLK
  0
BLOCK
  2
PLYG4
 70
     0
 10
0.000000
 20
0.000000
  0
ATTDEF
  8
0
 10
0.00
 20
0.00
 40
0.025
  1
SOLID
  2
FILL_PATTERN
  3
attribute ?
 70
     9
  0
ATTDEF
  8
0
 10
0.00
 20
0.00
 40
0.025
  1
POLYGON
  2
OBJECT
  3
attribute ?
 70
     9
  0
POLYLINE
  8
ETCHBT
 66
     1
 70
     1
 40
0.400000
 41
0.400000
  6
CONTINUOUS
  0
VERTEX
  8
ETCHBT
 10
63.700000
 20
132.400000
  0
VERTEX
  8
ETCHBT
 10
71.100000
 20
132.400000
  0
VERTEX
  8
ETCHBT
 10
71.100000
 20
116.400000
  0
VERTEX
  8
ETCHBT
 10
63.700000
 20
116.400000
  0
SEQEND
  0
ENDBLK
  0
BLOCK
  2
PLYG5
 70
     0
 10
0.000000
 20
0.000000
  0
ATTDEF
  8
0
 10
0.00
 20
0.00
 40
0.025
  1
SOLID
  2
FILL_PATTERN
  3
attribute ?
 70
     9
  0
ATTDEF
  8
0
 10
0.00
 20
0.00
 40
0.025
  1
POLYGON
  2
OBJECT
  3
attribute ?
 70
     9
  0
POLYLINE
  8
ETCHTP
 66
     1
 70
     1
 40
0.400000
 41
0.400000
  6
CONTINUOUS
  0
VERTEX
  8
ETCHTP
 10
41.700000
 20
208.300000
  0
VERTEX
  8
ETCHTP
 10
49.300000
 20
208.300000
  0
VERTEX
  8
ETCHTP
 10
49.300000
 20
206.400000
  0
VERTEX
  8
ETCHTP
 10
44.300000
 20
206.500000
  0
VERTEX
  8
ETCHTP
 10
43.800000
 20
206.700000
  0
VERTEX
  8
ETCHTP
 10
43.300000
 20
206.400000
  0
VERTEX
  8
ETCHTP
 10
41.700000
 20
206.400000
  0
SEQEND
  0
ENDBLK
  0
BLOCK
  2
PLYG6
 70
     0
 10
0.000000
 20
0.000000
  0
ATTDEF
  8
0
 10
0.00
 20
0.00
 40
0.025
  1
SOLID
  2
FILL_PATTERN
  3
attribute ?
 70
     9
  0
ATTDEF
  8
0
 10
0.00
 20
0.00
 40
0.025
  1
POLYGON
  2
OBJECT
  3
attribute ?
 70
     9
  0
POLYLINE
  8
ETCHTP
 66
     1
 70
     1
 40
0.400000
 41
0.400000
  6
CONTINUOUS
  0
VERTEX
  8
ETCHTP
 10
41.700000
 20
200.000000
  0
VERTEX
  8
ETCHTP
 10
43.300000
 20
200.000000
  0
VERTEX
  8
ETCHTP
 10
43.600000
 20
199.700000
  0
VERTEX
  8
ETCHTP
 10
44.100000
 20
200.000000
  0
VERTEX
  8
ETCHTP
 10
49.300000
 20
200.000000
  0
VERTEX
  8
ETCHTP
 10
49.300000
 20
198.100000
  0
VERTEX
  8
ETCHTP
 10
41.700000
 20
198.100000
  0
SEQEND
  0
ENDBLK
  0
BLOCK
  2
PLYG7
 70
     0
 10
0.000000
 20
0.000000
  0
ATTDEF
  8
0
 10
0.00
 20
0.00
 40
0.025
  1
SOLID
  2
FILL_PATTERN
  3
attribute ?
 70
     9
  0
ATTDEF
  8
0
 10
0.00
 20
0.00
 40
0.025
  1
POLYGON
  2
OBJECT
  3
attribute ?
 70
     9
  0
POLYLINE
  8
ETCHTP
 66
     1
 70
     1
 40
0.400000
 41
0.400000
  6
CONTINUOUS
  0
VERTEX
  8
ETCHTP
 10
68.400000
 20
157.400000
  0
VERTEX
  8
ETCHTP
 10
66.200000
 20
155.200000
  0
VERTEX
  8
ETCHTP
 10
22.100000
 20
155.200000
  0
VERTEX
  8
ETCHTP
 10
22.100000
 20
163.600000
  0
VERTEX
  8
ETCHTP
 10
66.100000
 20
163.600000
  0
VERTEX
  8
ETCHTP
 10
68.400000
 20
161.300000
  0
VERTEX
  8
ETCHTP
 10
68.400000
 20
157.500000
  0
SEQEND
  0
ENDBLK
  0
ENDSEC
  0
SECTION
  2
ENTITIES
  0
INSERT
  8
0
  2
PLYG7
 10
0.000000
 20
0.000000
 41
1
 50
0.000000
 66
     1
  0
ATTRIB
  8
0
  1
POLYGON
 40
0.000000
 41
1.000000
 50
0.000000
 72
     0
 10
0.000000
 20
0.000000
 11
0.000000
 21
0.000000
 71
     0
  2
OBJECT
 70
     9
  0
ATTRIB
  8
0
  1
SOLID
 40
0.000000
 41
1.000000
 50
0.000000
 72
     0
 10
0.000000
 20
0.000000
 11
0.000000
 21
0.000000
 71
     0
  2
FILL_PATTERN
 70
     9
  0
SEQEND
  0
INSERT
  8
0
  2
PLYG6
 10
0.000000
 20
0.000000
 41
1
 50
0.000000
 66
     1
  0
ATTRIB
  8
0
  1
POLYGON
 40
0.000000
 41
1.000000
 50
0.000000
 72
     0
 10
0.000000
 20
0.000000
 11
0.000000
 21
0.000000
 71
     0
  2
OBJECT
 70
     9
  0
ATTRIB
  8
0
  1
SOLID
 40
0.000000
 41
1.000000
 50
0.000000
 72
     0
 10
0.000000
 20
0.000000
 11
0.000000
 21
0.000000
 71
     0
  2
FILL_PATTERN
 70
     9
  0
SEQEND
  0
INSERT
  8
0
  2
PLYG5
 10
0.000000
 20
0.000000
 41
1
 50
0.000000
 66
     1
  0
ATTRIB
  8
0
  1
POLYGON
 40
0.000000
 41
1.000000
 50
0.000000
 72
     0
 10
0.000000
 20
0.000000
 11
0.000000
 21
0.000000
 71
     0
  2
OBJECT
 70
     9
  0
ATTRIB
  8
0
  1
SOLID
 40
0.000000
 41
1.000000
 50
0.000000
 72
     0
 10
0.000000
 20
0.000000
 11
0.000000
 21
0.000000
 71
     0
  2
FILL_PATTERN
 70
     9
  0
SEQEND
  0
INSERT
  8
0
  2
PLYG4
 10
0.000000
 20
0.000000
 41
1
 50
0.000000
 66
     1
  0
ATTRIB
  8
0
  1
POLYGON
 40
0.000000
 41
1.000000
 50
0.000000
 72
     0
 10
0.000000
 20
0.000000
 11
0.000000
 21
0.000000
 71
     0
  2
OBJECT
 70
     9
  0
ATTRIB
  8
0
  1
SOLID
 40
0.000000
 41
1.000000
 50
0.000000
 72
     0
 10
0.000000
 20
0.000000
 11
0.000000
 21
0.000000
 71
     0
  2
FILL_PATTERN
 70
     9
  0
SEQEND
  0
INSERT
  8
0
  2
PLYG3
 10
0.000000
 20
0.000000
 41
1
 50
0.000000
 66
     1
  0
ATTRIB
  8
0
  1
POLYGON
 40
0.000000
 41
1.000000
 50
0.000000
 72
     0
 10
0.000000
 20
0.000000
 11
0.000000
 21
0.000000
 71
     0
  2
OBJECT
 70
     9
  0
ATTRIB
  8
0
  1
SOLID
 40
0.000000
 41
1.000000
 50
0.000000
 72
     0
 10
0.000000
 20
0.000000
 11
0.000000
 21
0.000000
 71
     0
  2
FILL_PATTERN
 70
     9
  0
SEQEND
  0
INSERT
  8
0
  2
PLYG2
 10
0.000000
 20
0.000000
 41
1
 50
0.000000
 66
     1
  0
ATTRIB
  8
0
  1
POLYGON
 40
0.000000
 41
1.000000
 50
0.000000
 72
     0
 10
0.000000
 20
0.000000
 11
0.000000
 21
0.000000
 71
     0
  2
OBJECT
 70
     9
  0
ATTRIB
  8
0
  1
SOLID
 40
0.000000
 41
1.000000
 50
0.000000
 72
     0
 10
0.000000
 20
0.000000
 11
0.000000
 21
0.000000
 71
     0
  2
FILL_PATTERN
 70
     9
  0
SEQEND
  0
INSERT
  8
0
  2
PLYG1
 10
0.000000
 20
0.000000
 41
1
 50
0.000000
 66
     1
  0
ATTRIB
  8
0
  1
POLYGON
 40
0.000000
 41
1.000000
 50
0.000000
 72
     0
 10
0.000000
 20
0.000000
 11
0.000000
 21
0.000000
 71
     0
  2
OBJECT
 70
     9
  0
ATTRIB
  8
0
  1
SOLID
 40
0.000000
 41
1.000000
 50
0.000000
 72
     0
 10
0.000000
 20
0.000000
 11
0.000000
 21
0.000000
 71
     0
  2
FILL_PATTERN
 70
     9
  0
SEQEND
  0
INSERT
  8
0
  2
PLYG0
 10
0.000000
 20
0.000000
 41
1
 50
0.000000
 66
     1
  0
ATTRIB
  8
0
  1
POLYGON
 40
0.000000
 41
1.000000
 50
0.000000
 72
     0
 10
0.000000
 20
0.000000
 11
0.000000
 21
0.000000
 71
     0
  2
OBJECT
 70
     9
  0
ATTRIB
  8
0
  1
SOLID
 40
0.000000
 41
1.000000
 50
0.000000
 72
     0
 10
0.000000
 20
0.000000
 11
0.000000
 21
0.000000
 71
     0
  2
FILL_PATTERN
 70
     9
  0
SEQEND
  0
LINE
  8
BOTH
  6
CONTINUOUS
 10
72.400000
 20
204.200000
 11
73.200000
 21
204.200000
  0
LINE
  8
BOTH
  6
CONTINUOUS
 10
73.200000
 20
204.200000
 11
73.400000
 21
204.400000
  0
LINE
  8
BOTH
  6
CONTINUOUS
 10
73.400000
 20
204.400000
 11
73.600000
 21
204.400000
  0
LINE
  8
BOTH
  6
CONTINUOUS
 10
73.600000
 20
204.400000
 11
73.800000
 21
204.200000
  0
LINE
  8
BOTH
  6
CONTINUOUS
 10
73.800000
 20
204.200000
 11
74.000000
 21
204.200000
  0
LINE
  8
BOTH
  6
CONTINUOUS
 10
74.000000
 20
204.200000
 11
74.200000
 21
204.400000
  0
LINE
  8
BOTH
  6
CONTINUOUS
 10
74.200000
 20
204.400000
 11
74.400000
 21
204.400000
  0
LINE
  8
BOTH
  6
CONTINUOUS
 10
74.400000
 20
204.400000
 11
74.600000
 21
204.200000
  0
LINE
  8
BOTH
  6
CONTINUOUS
 10
74.600000
 20
204.200000
 11
75.000000
 21
204.200000
  0
LINE
  8
BOTH
  6
CONTINUOUS
 10
75.000000
 20
204.200000
 11
75.300000
 21
204.500000
  0
LINE
  8
BOTH
  6
CONTINUOUS
 10
75.300000
 20
204.500000
 11
75.300000
 21
205.900000
  0
LINE
  8
BOTH
  6
CONTINUOUS
 10
75.300000
 20
205.900000
 11
75.000000
 21
206.200000
  0
LINE
  8
BOTH
  6
CONTINUOUS
 10
75.000000
 20
206.200000
 11
74.600000
 21
206.200000
  0
LINE
  8
BOTH
  6
CONTINUOUS
 10
74.600000
 20
206.200000
 11
74.400000
 21
206.000000
  0
LINE
  8
BOTH
  6
CONTINUOUS
 10
74.400000
 20
206.000000
 11
74.200000
 21
206.000000
  0
LINE
  8
BOTH
  6
CONTINUOUS
 10
74.200000
 20
206.000000
 11
74.000000
 21
206.200000
  0
LINE
  8
BOTH
  6
CONTINUOUS
 10
74.000000
 20
206.200000
 11
73.800000
 21
206.200000
  0
LINE
  8
BOTH
  6
CONTINUOUS
 10
73.800000
 20
206.200000
 11
73.600000
 21
206.000000
  0
LINE
  8
BOTH
  6
CONTINUOUS
 10
73.600000
 20
206.000000
 11
73.400000
 21
206.000000
  0
LINE
  8
BOTH
  6
CONTINUOUS
 10
73.400000
 20
206.000000
 11
73.200000
 21
206.200000
  0
LINE
  8
BOTH
  6
CONTINUOUS
 10
73.200000
 20
206.200000
 11
72.600000
 21
206.200000
  0
LINE
  8
BOTH
  6
CONTINUOUS
 10
72.600000
 20
206.200000
 11
72.000000
 21
205.600000
  0
LINE
  8
BOTH
  6
CONTINUOUS
 10
72.000000
 20
205.600000
 11
71.200000
 21
205.600000
  0
LINE
  8
BOTH
  6
CONTINUOUS
 10
71.200000
 20
205.600000
 11
71.000000
 21
206.600000
  0
LINE
  8
BOTH
  6
CONTINUOUS
 10
71.000000
 20
206.600000
 11
70.600000
 21
206.600000
  0
LINE
  8
BOTH
  6
CONTINUOUS
 10
70.600000
 20
206.600000
 11
70.300000
 21
205.300000
  0
LINE
  8
BOTH
  6
CONTINUOUS
 10
70.300000
 20
205.300000
 11
70.300000
 21
201.000000
  0
LINE
  8
BOTH
  6
CONTINUOUS
 10
70.300000
 20
201.000000
 11
70.600000
 21
199.800000
  0
LINE
  8
BOTH
  6
CONTINUOUS
 10
70.600000
 20
199.800000
 11
71.000000
 21
199.800000
  0
LINE
  8
BOTH
  6
CONTINUOUS
 10
71.000000
 20
199.800000
 11
71.200000
 21
200.800000
  0
LINE
  8
BOTH
  6
CONTINUOUS
 10
71.200000
 20
200.800000
 11
72.000000
 21
200.800000
  0
LINE
  8
BOTH
  6
CONTINUOUS
 10
72.000000
 20
200.800000
 11
72.600000
 21
200.200000
  0
LINE
  8
BOTH
  6
CONTINUOUS
 10
72.600000
 20
200.200000
 11
73.200000
 21
200.200000
  0
LINE
  8
BOTH
  6
CONTINUOUS
 10
73.200000
 20
200.200000
 11
73.400000
 21
200.400000
  0
LINE
  8
BOTH
  6
CONTINUOUS
 10
73.400000
 20
200.400000
 11
73.600000
 21
200.400000
  0
LINE
  8
BOTH
  6
CONTINUOUS
 10
73.600000
 20
200.400000
 11
73.800000
 21
200.200000
  0
LINE
  8
BOTH
  6
CONTINUOUS
 10
73.800000
 20
200.200000
 11
74.000000
 21
200.200000
  0
LINE
  8
BOTH
  6
CONTINUOUS
 10
74.000000
 20
200.200000
 11
74.200000
 21
200.400000
  0
LINE
  8
BOTH
  6
CONTINUOUS
 10
74.200000
 20
200.400000
 11
74.400000
 21
200.400000
  0
LINE
  8
BOTH
  6
CONTINUOUS
 10
74.400000
 20
200.400000
 11
74.600000
 21
200.200000
  0
LINE
  8
BOTH
  6
CONTINUOUS
 10
74.600000
 20
200.200000
 11
75.000000
 21
200.200000
  0
LINE
  8
BOTH
  6
CONTINUOUS
 10
75.000000
 20
200.200000
 11
75.300000
 21
200.500000
  0
LINE
  8
BOTH
  6
CONTINUOUS
 10
75.300000
 20
200.500000
 11
75.300000
 21
201.900000
  0
LINE
  8
BOTH
  6
CONTINUOUS
 10
75.300000
 20
201.900000
 11
75.000000
 21
202.200000
  0
LINE
  8
BOTH
  6
CONTINUOUS
 10
75.000000
 20
202.200000
 11
74.500000
 21
202.200000
  0
LINE
  8
BOTH
  6
CONTINUOUS
 10
74.500000
 20
202.200000
 11
74.400000
 21
202.000000
  0
LINE
  8
BOTH
  6
CONTINUOUS
 10
74.400000
 20
202.000000
 11
74.200000
 21
202.000000
  0
LINE
  8
BOTH
  6
CONTINUOUS
 10
74.200000
 20
202.000000
 11
74.100000
 21
202.200000
  0
LINE
  8
BOTH
  6
CONTINUOUS
 10
74.100000
 20
202.200000
 11
73.700000
 21
202.200000
  0
LINE
  8
BOTH
  6
CONTINUOUS
 10
73.700000
 20
202.200000
 11
73.600000
 21
202.000000
  0
LINE
  8
BOTH
  6
CONTINUOUS
 10
73.600000
 20
202.000000
 11
73.400000
 21
202.000000
  0
LINE
  8
BOTH
  6
CONTINUOUS
 10
73.400000
 20
202.000000
 11
73.200000
 21
202.200000
  0
LINE
  8
BOTH
  6
CONTINUOUS
 10
73.200000
 20
202.200000
 11
72.400000
 21
202.200000
  0
LINE
  8
BOTH
  6
CONTINUOUS
 10
72.400000
 20
202.200000
 11
72.300000
 21
202.300000
  0
LINE
  8
BOTH
  6
CONTINUOUS
 10
72.300000
 20
202.300000
 11
72.300000
 21
202.500000
  0
LINE
  8
BOTH
  6
CONTINUOUS
 10
72.300000
 20
202.500000
 11
72.400000
 21
202.600000
  0
LINE
  8
BOTH
  6
CONTINUOUS
 10
72.400000
 20
202.600000
 11
73.400000
 21
202.600000
  0
LINE
  8
BOTH
  6
CONTINUOUS
 10
73.400000
 20
202.600000
 11
73.500000
 21
202.500000
  0
LINE
  8
BOTH
  6
CONTINUOUS
 10
73.500000
 20
202.500000
 11
73.600000
 21
202.600000
  0
LINE
  8
BOTH
  6
CONTINUOUS
 10
73.600000
 20
202.600000
 11
74.200000
 21
202.600000
  0
LINE
  8
BOTH
  6
CONTINUOUS
 10
74.200000
 20
202.600000
 11
74.300000
 21
202.500000
  0
LINE
  8
BOTH
  6
CONTINUOUS
 10
74.300000
 20
202.500000
 11
74.400000
 21
202.600000
  0
LINE
  8
BOTH
  6
CONTINUOUS
 10
74.400000
 20
202.600000
 11
75.200000
 21
202.600000
  0
LINE
  8
BOTH
  6
CONTINUOUS
 10
75.200000
 20
202.600000
 11
75.700000
 21
202.100000
  0
LINE
  8
BOTH
  6
CONTINUOUS
 10
75.700000
 20
202.100000
 11
75.700000
 21
200.300000
  0
LINE
  8
BOTH
  6
CONTINUOUS
 10
75.700000
 20
200.300000
 11
75.200000
 21
199.800000
  0
LINE
  8
BOTH
  6
CONTINUOUS
 10
75.200000
 20
199.800000
 11
71.400000
 21
199.800000
  0
LINE
  8
BOTH
  6
CONTINUOUS
 10
71.400000
 20
199.800000
 11
71.300000
 21
199.400000
  0
LINE
  8
BOTH
  6
CONTINUOUS
 10
71.300000
 20
199.400000
 11
70.400000
 21
199.400000
  0
LINE
  8
BOTH
  6
CONTINUOUS
 10
70.400000
 20
199.400000
 11
70.300000
 21
199.500000
  0
LINE
  8
BOTH
  6
CONTINUOUS
 10
70.300000
 20
199.500000
 11
69.900000
 21
201.000000
  0
LINE
  8
BOTH
  6
CONTINUOUS
 10
69.900000
 20
201.000000
 11
69.900000
 21
205.400000
  0
LINE
  8
BOTH
  6
CONTINUOUS
 10
69.900000
 20
205.400000
 11
70.300000
 21
206.900000
  0
LINE
  8
BOTH
  6
CONTINUOUS
 10
70.300000
 20
206.900000
 11
70.400000
 21
207.000000
  0
LINE
  8
BOTH
  6
CONTINUOUS
 10
70.400000
 20
207.000000
 11
71.300000
 21
207.000000
  0
LINE
  8
BOTH
  6
CONTINUOUS
 10
71.300000
 20
207.000000
 11
71.400000
 21
206.600000
  0
LINE
  8
BOTH
  6
CONTINUOUS
 10
71.400000
 20
206.600000
 11
75.200000
 21
206.600000
  0
LINE
  8
BOTH
  6
CONTINUOUS
 10
75.200000
 20
206.600000
 11
75.700000
 21
206.100000
  0
LINE
  8
BOTH
  6
CONTINUOUS
 10
75.700000
 20
206.100000
 11
75.700000
 21
204.300000
  0
LINE
  8
BOTH
  6
CONTINUOUS
 10
75.700000
 20
204.300000
 11
75.200000
 21
203.800000
  0
LINE
  8
BOTH
  6
CONTINUOUS
 10
75.200000
 20
203.800000
 11
74.400000
 21
203.800000
  0
LINE
  8
BOTH
  6
CONTINUOUS
 10
74.400000
 20
203.800000
 11
74.300000
 21
203.900000
  0
LINE
  8
BOTH
  6
CONTINUOUS
 10
74.300000
 20
203.900000
 11
74.100000
 21
203.800000
  0
LINE
  8
BOTH
  6
CONTINUOUS
 10
74.100000
 20
203.800000
 11
73.600000
 21
203.800000
  0
LINE
  8
BOTH
  6
CONTINUOUS
 10
73.600000
 20
203.800000
 11
73.500000
 21
203.900000
  0
LINE
  8
BOTH
  6
CONTINUOUS
 10
73.500000
 20
203.900000
 11
73.300000
 21
203.800000
  0
LINE
  8
BOTH
  6
CONTINUOUS
 10
73.300000
 20
203.800000
 11
72.400000
 21
203.800000
  0
LINE
  8
BOTH
  6
CONTINUOUS
 10
72.400000
 20
203.800000
 11
72.300000
 21
203.900000
  0
LINE
  8
BOTH
  6
CONTINUOUS
 10
72.300000
 20
203.900000
 11
72.300000
 21
204.100000
  0
LINE
  8
BOTH
  6
CONTINUOUS
 10
72.300000
 20
204.100000
 11
72.400000
 21
204.200000
  0
LINE
  8
BOTH
  6
CONTINUOUS
 10
18.400000
 20
204.200000
 11
19.200000
 21
204.200000
  0
LINE
  8
BOTH
  6
CONTINUOUS
 10
19.200000
 20
204.200000
 11
19.400000
 21
204.400000
  0
LINE
  8
BOTH
  6
CONTINUOUS
 10
19.400000
 20
204.400000
 11
19.600000
 21
204.400000
  0
LINE
  8
BOTH
  6
CONTINUOUS
 10
19.600000
 20
204.400000
 11
19.800000
 21
204.200000
  0
LINE
  8
BOTH
  6
CONTINUOUS
 10
19.800000
 20
204.200000
 11
20.000000
 21
204.200000
  0
LINE
  8
BOTH
  6
CONTINUOUS
 10
20.000000
 20
204.200000
 11
20.200000
 21
204.400000
  0
LINE
  8
BOTH
  6
CONTINUOUS
 10
20.200000
 20
204.400000
 11
20.400000
 21
204.400000
  0
LINE
  8
BOTH
  6
CONTINUOUS
 10
20.400000
 20
204.400000
 11
20.600000
 21
204.200000
  0
LINE
  8
BOTH
  6
CONTINUOUS
 10
20.600000
 20
204.200000
 11
21.000000
 21
204.200000
  0
LINE
  8
BOTH
  6
CONTINUOUS
 10
21.000000
 20
204.200000
 11
21.300000
 21
204.500000
  0
LINE
  8
BOTH
  6
CONTINUOUS
 10
21.300000
 20
204.500000
 11
21.300000
 21
205.900000
  0
LINE
  8
BOTH
  6
CONTINUOUS
 10
21.300000
 20
205.900000
 11
21.000000
 21
206.200000
  0
LINE
  8
BOTH
  6
CONTINUOUS
 10
21.000000
 20
206.200000
 11
20.600000
 21
206.200000
  0
LINE
  8
BOTH
  6
CONTINUOUS
 10
20.600000
 20
206.200000
 11
20.400000
 21
206.000000
  0
LINE
  8
BOTH
  6
CONTINUOUS
 10
20.400000
 20
206.000000
 11
20.200000
 21
206.000000
  0
LINE
  8
BOTH
  6
CONTINUOUS
 10
20.200000
 20
206.000000
 11
20.000000
 21
206.200000
  0
LINE
  8
BOTH
  6
CONTINUOUS
 10
20.000000
 20
206.200000
 11
19.800000
 21
206.200000
  0
LINE
  8
BOTH
  6
CONTINUOUS
 10
19.800000
 20
206.200000
 11
19.600000
 21
206.000000
  0
LINE
  8
BOTH
  6
CONTINUOUS
 10
19.600000
 20
206.000000
 11
19.400000
 21
206.000000
  0
LINE
  8
BOTH
  6
CONTINUOUS
 10
19.400000
 20
206.000000
 11
19.200000
 21
206.200000
  0
LINE
  8
BOTH
  6
CONTINUOUS
 10
19.200000
 20
206.200000
 11
18.600000
 21
206.200000
  0
LINE
  8
BOTH
  6
CONTINUOUS
 10
18.600000
 20
206.200000
 11
18.000000
 21
205.600000
  0
LINE
  8
BOTH
  6
CONTINUOUS
 10
18.000000
 20
205.600000
 11
17.200000
 21
205.600000
  0
LINE
  8
BOTH
  6
CONTINUOUS
 10
17.200000
 20
205.600000
 11
17.000000
 21
206.600000
  0
LINE
  8
BOTH
  6
CONTINUOUS
 10
17.000000
 20
206.600000
 11
16.600000
 21
206.600000
  0
LINE
  8
BOTH
  6
CONTINUOUS
 10
16.600000
 20
206.600000
 11
16.300000
 21
205.300000
  0
LINE
  8
BOTH
  6
CONTINUOUS
 10
16.300000
 20
205.300000
 11
16.300000
 21
201.000000
  0
LINE
  8
BOTH
  6
CONTINUOUS
 10
16.300000
 20
201.000000
 11
16.600000
 21
199.800000
  0
LINE
  8
BOTH
  6
CONTINUOUS
 10
16.600000
 20
199.800000
 11
17.000000
 21
199.800000
  0
LINE
  8
BOTH
  6
CONTINUOUS
 10
17.000000
 20
199.800000
 11
17.200000
 21
200.800000
  0
LINE
  8
BOTH
  6
CONTINUOUS
 10
17.200000
 20
200.800000
 11
18.000000
 21
200.800000
  0
LINE
  8
BOTH
  6
CONTINUOUS
 10
18.000000
 20
200.800000
 11
18.600000
 21
200.200000
  0
LINE
  8
BOTH
  6
CONTINUOUS
 10
18.600000
 20
200.200000
 11
19.200000
 21
200.200000
  0
LINE
  8
BOTH
  6
CONTINUOUS
 10
19.200000
 20
200.200000
 11
19.400000
 21
200.400000
  0
LINE
  8
BOTH
  6
CONTINUOUS
 10
19.400000
 20
200.400000
 11
19.600000
 21
200.400000
  0
LINE
  8
BOTH
  6
CONTINUOUS
 10
19.600000
 20
200.400000
 11
19.800000
 21
200.200000
  0
LINE
  8
BOTH
  6
CONTINUOUS
 10
19.800000
 20
200.200000
 11
20.000000
 21
200.200000
  0
LINE
  8
BOTH
  6
CONTINUOUS
 10
20.000000
 20
200.200000
 11
20.200000
 21
200.400000
  0
LINE
  8
BOTH
  6
CONTINUOUS
 10
20.200000
 20
200.400000
 11
20.400000
 21
200.400000
  0
LINE
  8
BOTH
  6
CONTINUOUS
 10
20.400000
 20
200.400000
 11
20.600000
 21
200.200000
  0
LINE
  8
BOTH
  6
CONTINUOUS
 10
20.600000
 20
200.200000
 11
21.000000
 21
200.200000
  0
LINE
  8
BOTH
  6
CONTINUOUS
 10
21.000000
 20
200.200000
 11
21.300000
 21
200.500000
  0
LINE
  8
BOTH
  6
CONTINUOUS
 10
21.300000
 20
200.500000
 11
21.300000
 21
201.900000
  0
LINE
  8
BOTH
  6
CONTINUOUS
 10
21.300000
 20
201.900000
 11
21.000000
 21
202.200000
  0
LINE
  8
BOTH
  6
CONTINUOUS
 10
21.000000
 20
202.200000
 11
20.500000
 21
202.200000
  0
LINE
  8
BOTH
  6
CONTINUOUS
 10
20.500000
 20
202.200000
 11
20.400000
 21
202.000000
  0
LINE
  8
BOTH
  6
CONTINUOUS
 10
20.400000
 20
202.000000
 11
20.200000
 21
202.000000
  0
LINE
  8
BOTH
  6
CONTINUOUS
 10
20.200000
 20
202.000000
 11
20.100000
 21
202.200000
  0
LINE
  8
BOTH
  6
CONTINUOUS
 10
20.100000
 20
202.200000
 11
19.700000
 21
202.200000
  0
LINE
  8
BOTH
  6
CONTINUOUS
 10
19.700000
 20
202.200000
 11
19.600000
 21
202.000000
  0
LINE
  8
BOTH
  6
CONTINUOUS
 10
19.600000
 20
202.000000
 11
19.400000
 21
202.000000
  0
LINE
  8
BOTH
  6
CONTINUOUS
 10
19.400000
 20
202.000000
 11
19.200000
 21
202.200000
  0
LINE
  8
BOTH
  6
CONTINUOUS
 10
19.200000
 20
202.200000
 11
18.400000
 21
202.200000
  0
LINE
  8
BOTH
  6
CONTINUOUS
 10
18.400000
 20
202.200000
 11
18.300000
 21
202.300000
  0
LINE
  8
BOTH
  6
CONTINUOUS
 10
18.300000
 20
202.300000
 11
18.300000
 21
202.500000
  0
LINE
  8
BOTH
  6
CONTINUOUS
 10
18.300000
 20
202.500000
 11
18.400000
 21
202.600000
  0
LINE
  8
BOTH
  6
CONTINUOUS
 10
18.400000
 20
202.600000
 11
19.400000
 21
202.600000
  0
LINE
  8
BOTH
  6
CONTINUOUS
 10
19.400000
 20
202.600000
 11
19.500000
 21
202.500000
  0
LINE
  8
BOTH
  6
CONTINUOUS
 10
19.500000
 20
202.500000
 11
19.600000
 21
202.600000
  0
LINE
  8
BOTH
  6
CONTINUOUS
 10
19.600000
 20
202.600000
 11
20.200000
 21
202.600000
  0
LINE
  8
BOTH
  6
CONTINUOUS
 10
20.200000
 20
202.600000
 11
20.300000
 21
202.500000
  0
LINE
  8
BOTH
  6
CONTINUOUS
 10
20.300000
 20
202.500000
 11
20.400000
 21
202.600000
  0
LINE
  8
BOTH
  6
CONTINUOUS
 10
20.400000
 20
202.600000
 11
21.200000
 21
202.600000
  0
LINE
  8
BOTH
  6
CONTINUOUS
 10
21.200000
 20
202.600000
 11
21.700000
 21
202.100000
  0
LINE
  8
BOTH
  6
CONTINUOUS
 10
21.700000
 20
202.100000
 11
21.700000
 21
200.300000
  0
LINE
  8
BOTH
  6
CONTINUOUS
 10
21.700000
 20
200.300000
 11
21.200000
 21
199.800000
  0
LINE
  8
BOTH
  6
CONTINUOUS
 10
21.200000
 20
199.800000
 11
17.400000
 21
199.800000
  0
LINE
  8
BOTH
  6
CONTINUOUS
 10
17.400000
 20
199.800000
 11
17.300000
 21
199.400000
  0
LINE
  8
BOTH
  6
CONTINUOUS
 10
17.300000
 20
199.400000
 11
16.400000
 21
199.400000
  0
LINE
  8
BOTH
  6
CONTINUOUS
 10
16.400000
 20
199.400000
 11
16.300000
 21
199.500000
  0
LINE
  8
BOTH
  6
CONTINUOUS
 10
16.300000
 20
199.500000
 11
15.900000
 21
201.000000
  0
LINE
  8
BOTH
  6
CONTINUOUS
 10
15.900000
 20
201.000000
 11
15.900000
 21
205.400000
  0
LINE
  8
BOTH
  6
CONTINUOUS
 10
15.900000
 20
205.400000
 11
16.300000
 21
206.900000
  0
LINE
  8
BOTH
  6
CONTINUOUS
 10
16.300000
 20
206.900000
 11
16.400000
 21
207.000000
  0
LINE
  8
BOTH
  6
CONTINUOUS
 10
16.400000
 20
207.000000
 11
17.300000
 21
207.000000
  0
LINE
  8
BOTH
  6
CONTINUOUS
 10
17.300000
 20
207.000000
 11
17.400000
 21
206.600000
  0
LINE
  8
BOTH
  6
CONTINUOUS
 10
17.400000
 20
206.600000
 11
21.200000
 21
206.600000
  0
LINE
  8
BOTH
  6
CONTINUOUS
 10
21.200000
 20
206.600000
 11
21.700000
 21
206.100000
  0
LINE
  8
BOTH
  6
CONTINUOUS
 10
21.700000
 20
206.100000
 11
21.700000
 21
204.300000
  0
LINE
  8
BOTH
  6
CONTINUOUS
 10
21.700000
 20
204.300000
 11
21.200000
 21
203.800000
  0
LINE
  8
BOTH
  6
CONTINUOUS
 10
21.200000
 20
203.800000
 11
20.400000
 21
203.800000
  0
LINE
  8
BOTH
  6
CONTINUOUS
 10
20.400000
 20
203.800000
 11
20.300000
 21
203.900000
  0
LINE
  8
BOTH
  6
CONTINUOUS
 10
20.300000
 20
203.900000
 11
20.100000
 21
203.800000
  0
LINE
  8
BOTH
  6
CONTINUOUS
 10
20.100000
 20
203.800000
 11
19.600000
 21
203.800000
  0
LINE
  8
BOTH
  6
CONTINUOUS
 10
19.600000
 20
203.800000
 11
19.500000
 21
203.900000
  0
LINE
  8
BOTH
  6
CONTINUOUS
 10
19.500000
 20
203.900000
 11
19.300000
 21
203.800000
  0
LINE
  8
BOTH
  6
CONTINUOUS
 10
19.300000
 20
203.800000
 11
18.400000
 21
203.800000
  0
LINE
  8
BOTH
  6
CONTINUOUS
 10
18.400000
 20
203.800000
 11
18.300000
 21
203.900000
  0
LINE
  8
BOTH
  6
CONTINUOUS
 10
18.300000
 20
203.900000
 11
18.300000
 21
204.100000
  0
LINE
  8
BOTH
  6
CONTINUOUS
 10
18.300000
 20
204.100000
 11
18.400000
 21
204.200000
  0
LINE
  8
BOTH
  6
CONTINUOUS
 10
45.400000
 20
204.200000
 11
46.200000
 21
204.200000
  0
LINE
  8
BOTH
  6
CONTINUOUS
 10
46.200000
 20
204.200000
 11
46.400000
 21
204.400000
  0
LINE
  8
BOTH
  6
CONTINUOUS
 10
46.400000
 20
204.400000
 11
46.600000
 21
204.400000
  0
LINE
  8
BOTH
  6
CONTINUOUS
 10
46.600000
 20
204.400000
 11
46.800000
 21
204.200000
  0
LINE
  8
BOTH
  6
CONTINUOUS
 10
46.800000
 20
204.200000
 11
47.000000
 21
204.200000
  0
LINE
  8
BOTH
  6
CONTINUOUS
 10
47.000000
 20
204.200000
 11
47.200000
 21
204.400000
  0
LINE
  8
BOTH
  6
CONTINUOUS
 10
47.200000
 20
204.400000
 11
47.400000
 21
204.400000
  0
LINE
  8
BOTH
  6
CONTINUOUS
 10
47.400000
 20
204.400000
 11
47.600000
 21
204.200000
  0
LINE
  8
BOTH
  6
CONTINUOUS
 10
47.600000
 20
204.200000
 11
48.000000
 21
204.200000
  0
LINE
  8
BOTH
  6
CONTINUOUS
 10
48.000000
 20
204.200000
 11
48.300000
 21
204.500000
  0
LINE
  8
BOTH
  6
CONTINUOUS
 10
48.300000
 20
204.500000
 11
48.300000
 21
205.900000
  0
LINE
  8
BOTH
  6
CONTINUOUS
 10
48.300000
 20
205.900000
 11
48.000000
 21
206.200000
  0
LINE
  8
BOTH
  6
CONTINUOUS
 10
48.000000
 20
206.200000
 11
47.600000
 21
206.200000
  0
LINE
  8
BOTH
  6
CONTINUOUS
 10
47.600000
 20
206.200000
 11
47.400000
 21
206.000000
  0
LINE
  8
BOTH
  6
CONTINUOUS
 10
47.400000
 20
206.000000
 11
47.200000
 21
206.000000
  0
LINE
  8
BOTH
  6
CONTINUOUS
 10
47.200000
 20
206.000000
 11
47.000000
 21
206.200000
  0
LINE
  8
BOTH
  6
CONTINUOUS
 10
47.000000
 20
206.200000
 11
46.800000
 21
206.200000
  0
LINE
  8
BOTH
  6
CONTINUOUS
 10
46.800000
 20
206.200000
 11
46.600000
 21
206.000000
  0
LINE
  8
BOTH
  6
CONTINUOUS
 10
46.600000
 20
206.000000
 11
46.400000
 21
206.000000
  0
LINE
  8
BOTH
  6
CONTINUOUS
 10
46.400000
 20
206.000000
 11
46.200000
 21
206.200000
  0
LINE
  8
BOTH
  6
CONTINUOUS
 10
46.200000
 20
206.200000
 11
45.600000
 21
206.200000
  0
LINE
  8
BOTH
  6
CONTINUOUS
 10
45.600000
 20
206.200000
 11
44.900000
 21
205.300000
  0
LINE
  8
BOTH
  6
CONTINUOUS
 10
44.900000
 20
205.300000
 11
44.700000
 21
205.300000
  0
LINE
  8
BOTH
  6
CONTINUOUS
 10
44.700000
 20
205.300000
 11
43.900000
 21
206.300000
  0
LINE
  8
BOTH
  6
CONTINUOUS
 10
43.900000
 20
206.300000
 11
43.500000
 21
206.100000
  0
LINE
  8
BOTH
  6
CONTINUOUS
 10
43.500000
 20
206.100000
 11
43.300000
 21
205.300000
  0
LINE
  8
BOTH
  6
CONTINUOUS
 10
43.300000
 20
205.300000
 11
43.300000
 21
201.000000
  0
LINE
  8
BOTH
  6
CONTINUOUS
 10
43.300000
 20
201.000000
 11
43.600000
 21
200.200000
  0
LINE
  8
BOTH
  6
CONTINUOUS
 10
43.600000
 20
200.200000
 11
43.900000
 21
200.100000
  0
LINE
  8
BOTH
  6
CONTINUOUS
 10
43.900000
 20
200.100000
 11
44.700000
 21
201.100000
  0
LINE
  8
BOTH
  6
CONTINUOUS
 10
44.700000
 20
201.100000
 11
44.900000
 21
201.100000
  0
LINE
  8
BOTH
  6
CONTINUOUS
 10
44.900000
 20
201.100000
 11
45.600000
 21
200.200000
  0
LINE
  8
BOTH
  6
CONTINUOUS
 10
45.600000
 20
200.200000
 11
46.200000
 21
200.200000
  0
LINE
  8
BOTH
  6
CONTINUOUS
 10
46.200000
 20
200.200000
 11
46.400000
 21
200.400000
  0
LINE
  8
BOTH
  6
CONTINUOUS
 10
46.400000
 20
200.400000
 11
46.600000
 21
200.400000
  0
LINE
  8
BOTH
  6
CONTINUOUS
 10
46.600000
 20
200.400000
 11
46.800000
 21
200.200000
  0
LINE
  8
BOTH
  6
CONTINUOUS
 10
46.800000
 20
200.200000
 11
47.000000
 21
200.200000
  0
LINE
  8
BOTH
  6
CONTINUOUS
 10
47.000000
 20
200.200000
 11
47.200000
 21
200.400000
  0
LINE
  8
BOTH
  6
CONTINUOUS
 10
47.200000
 20
200.400000
 11
47.400000
 21
200.400000
  0
LINE
  8
BOTH
  6
CONTINUOUS
 10
47.400000
 20
200.400000
 11
47.600000
 21
200.200000
  0
LINE
  8
BOTH
  6
CONTINUOUS
 10
47.600000
 20
200.200000
 11
48.000000
 21
200.200000
  0
LINE
  8
BOTH
  6
CONTINUOUS
 10
48.000000
 20
200.200000
 11
48.300000
 21
200.500000
  0
LINE
  8
BOTH
  6
CONTINUOUS
 10
48.300000
 20
200.500000
 11
48.300000
 21
201.900000
  0
LINE
  8
BOTH
  6
CONTINUOUS
 10
48.300000
 20
201.900000
 11
48.000000
 21
202.200000
  0
LINE
  8
BOTH
  6
CONTINUOUS
 10
48.000000
 20
202.200000
 11
47.500000
 21
202.200000
  0
LINE
  8
BOTH
  6
CONTINUOUS
 10
47.500000
 20
202.200000
 11
47.400000
 21
202.000000
  0
LINE
  8
BOTH
  6
CONTINUOUS
 10
47.400000
 20
202.000000
 11
47.200000
 21
202.000000
  0
LINE
  8
BOTH
  6
CONTINUOUS
 10
47.200000
 20
202.000000
 11
47.100000
 21
202.200000
  0
LINE
  8
BOTH
  6
CONTINUOUS
 10
47.100000
 20
202.200000
 11
46.700000
 21
202.200000
  0
LINE
  8
BOTH
  6
CONTINUOUS
 10
46.700000
 20
202.200000
 11
46.600000
 21
202.000000
  0
LINE
  8
BOTH
  6
CONTINUOUS
 10
46.600000
 20
202.000000
 11
46.400000
 21
202.000000
  0
LINE
  8
BOTH
  6
CONTINUOUS
 10
46.400000
 20
202.000000
 11
46.200000
 21
202.200000
  0
LINE
  8
BOTH
  6
CONTINUOUS
 10
46.200000
 20
202.200000
 11
45.400000
 21
202.200000
  0
LINE
  8
BOTH
  6
CONTINUOUS
 10
45.400000
 20
202.200000
 11
45.300000
 21
202.300000
  0
LINE
  8
BOTH
  6
CONTINUOUS
 10
45.300000
 20
202.300000
 11
45.300000
 21
202.500000
  0
LINE
  8
BOTH
  6
CONTINUOUS
 10
45.300000
 20
202.500000
 11
45.400000
 21
202.600000
  0
LINE
  8
BOTH
  6
CONTINUOUS
 10
45.400000
 20
202.600000
 11
46.400000
 21
202.600000
  0
LINE
  8
BOTH
  6
CONTINUOUS
 10
46.400000
 20
202.600000
 11
46.500000
 21
202.500000
  0
LINE
  8
BOTH
  6
CONTINUOUS
 10
46.500000
 20
202.500000
 11
46.600000
 21
202.600000
  0
LINE
  8
BOTH
  6
CONTINUOUS
 10
46.600000
 20
202.600000
 11
47.200000
 21
202.600000
  0
LINE
  8
BOTH
  6
CONTINUOUS
 10
47.200000
 20
202.600000
 11
47.300000
 21
202.500000
  0
LINE
  8
BOTH
  6
CONTINUOUS
 10
47.300000
 20
202.500000
 11
47.400000
 21
202.600000
  0
LINE
  8
BOTH
  6
CONTINUOUS
 10
47.400000
 20
202.600000
 11
48.200000
 21
202.600000
  0
LINE
  8
BOTH
  6
CONTINUOUS
 10
48.200000
 20
202.600000
 11
48.700000
 21
202.100000
  0
LINE
  8
BOTH
  6
CONTINUOUS
 10
48.700000
 20
202.100000
 11
48.700000
 21
200.300000
  0
LINE
  8
BOTH
  6
CONTINUOUS
 10
48.700000
 20
200.300000
 11
48.200000
 21
199.800000
  0
LINE
  8
BOTH
  6
CONTINUOUS
 10
48.200000
 20
199.800000
 11
44.100000
 21
199.800000
  0
LINE
  8
BOTH
  6
CONTINUOUS
 10
44.100000
 20
199.800000
 11
43.900000
 21
199.700000
  0
LINE
  8
BOTH
  6
CONTINUOUS
 10
43.900000
 20
199.700000
 11
43.200000
 21
200.000000
  0
LINE
  8
BOTH
  6
CONTINUOUS
 10
43.200000
 20
200.000000
 11
42.900000
 21
201.000000
  0
LINE
  8
BOTH
  6
CONTINUOUS
 10
42.900000
 20
201.000000
 11
42.900000
 21
205.400000
  0
LINE
  8
BOTH
  6
CONTINUOUS
 10
42.900000
 20
205.400000
 11
43.200000
 21
206.400000
  0
LINE
  8
BOTH
  6
CONTINUOUS
 10
43.200000
 20
206.400000
 11
43.900000
 21
206.700000
  0
LINE
  8
BOTH
  6
CONTINUOUS
 10
43.900000
 20
206.700000
 11
44.100000
 21
206.600000
  0
LINE
  8
BOTH
  6
CONTINUOUS
 10
44.100000
 20
206.600000
 11
48.200000
 21
206.600000
  0
LINE
  8
BOTH
  6
CONTINUOUS
 10
48.200000
 20
206.600000
 11
48.700000
 21
206.100000
  0
LINE
  8
BOTH
  6
CONTINUOUS
 10
48.700000
 20
206.100000
 11
48.700000
 21
204.300000
  0
LINE
  8
BOTH
  6
CONTINUOUS
 10
48.700000
 20
204.300000
 11
48.200000
 21
203.800000
  0
LINE
  8
BOTH
  6
CONTINUOUS
 10
48.200000
 20
203.800000
 11
47.400000
 21
203.800000
  0
LINE
  8
BOTH
  6
CONTINUOUS
 10
47.400000
 20
203.800000
 11
47.300000
 21
203.900000
  0
LINE
  8
BOTH
  6
CONTINUOUS
 10
47.300000
 20
203.900000
 11
47.100000
 21
203.800000
  0
LINE
  8
BOTH
  6
CONTINUOUS
 10
47.100000
 20
203.800000
 11
46.600000
 21
203.800000
  0
LINE
  8
BOTH
  6
CONTINUOUS
 10
46.600000
 20
203.800000
 11
46.500000
 21
203.900000
  0
LINE
  8
BOTH
  6
CONTINUOUS
 10
46.500000
 20
203.900000
 11
46.300000
 21
203.800000
  0
LINE
  8
BOTH
  6
CONTINUOUS
 10
46.300000
 20
203.800000
 11
45.400000
 21
203.800000
  0
LINE
  8
BOTH
  6
CONTINUOUS
 10
45.400000
 20
203.800000
 11
45.300000
 21
203.900000
  0
LINE
  8
BOTH
  6
CONTINUOUS
 10
45.300000
 20
203.900000
 11
45.300000
 21
204.100000
  0
LINE
  8
BOTH
  6
CONTINUOUS
 10
45.300000
 20
204.100000
 11
45.400000
 21
204.200000
  0
LINE
  8
BOTH
  6
CONTINUOUS
 10
49.700000
 20
115.000000
 11
49.700000
 21
116.500000
  0
LINE
  8
BOTH
  6
CONTINUOUS
 10
49.700000
 20
116.500000
 11
49.800000
 21
116.600000
  0
LINE
  8
BOTH
  6
CONTINUOUS
 10
49.800000
 20
116.600000
 11
73.800000
 21
116.600000
  0
LINE
  8
BOTH
  6
CONTINUOUS
 10
73.800000
 20
116.600000
 11
73.900000
 21
116.500000
  0
LINE
  8
BOTH
  6
CONTINUOUS
 10
73.900000
 20
116.500000
 11
73.900000
 21
115.000000
  0
LINE
  8
BOTH
  6
CONTINUOUS
 10
73.900000
 20
115.000000
 11
74.600000
 21
115.000000
  0
LINE
  8
BOTH
  6
CONTINUOUS
 10
74.600000
 20
115.000000
 11
74.700000
 21
114.900000
  0
LINE
  8
BOTH
  6
CONTINUOUS
 10
74.700000
 20
114.900000
 11
74.700000
 21
114.600000
  0
LINE
  8
BOTH
  6
CONTINUOUS
 10
74.700000
 20
114.600000
 11
75.100000
 21
114.600000
  0
LINE
  8
BOTH
  6
CONTINUOUS
 10
75.100000
 20
114.600000
 11
75.100000
 21
115.200000
  0
LINE
  8
BOTH
  6
CONTINUOUS
 10
75.100000
 20
115.200000
 11
75.200000
 21
115.300000
  0
LINE
  8
BOTH
  6
CONTINUOUS
 10
75.200000
 20
115.300000
 11
75.400000
 21
115.300000
  0
LINE
  8
BOTH
  6
CONTINUOUS
 10
75.400000
 20
115.300000
 11
75.500000
 21
115.200000
  0
LINE
  8
BOTH
  6
CONTINUOUS
 10
75.500000
 20
115.200000
 11
75.500000
 21
113.500000
  0
LINE
  8
BOTH
  6
CONTINUOUS
 10
75.500000
 20
113.500000
 11
75.400000
 21
113.400000
  0
LINE
  8
BOTH
  6
CONTINUOUS
 10
75.400000
 20
113.400000
 11
74.700000
 21
113.400000
  0
LINE
  8
BOTH
  6
CONTINUOUS
 10
74.700000
 20
113.400000
 11
74.700000
 21
112.700000
  0
LINE
  8
BOTH
  6
CONTINUOUS
 10
74.700000
 20
112.700000
 11
77.500000
 21
112.700000
  0
LINE
  8
BOTH
  6
CONTINUOUS
 10
77.500000
 20
112.700000
 11
77.500000
 21
113.400000
  0
LINE
  8
BOTH
  6
CONTINUOUS
 10
77.500000
 20
113.400000
 11
76.800000
 21
113.400000
  0
LINE
  8
BOTH
  6
CONTINUOUS
 10
76.800000
 20
113.400000
 11
76.700000
 21
113.500000
  0
LINE
  8
BOTH
  6
CONTINUOUS
 10
76.700000
 20
113.500000
 11
76.700000
 21
115.200000
  0
LINE
  8
BOTH
  6
CONTINUOUS
 10
76.700000
 20
115.200000
 11
76.800000
 21
115.300000
  0
LINE
  8
BOTH
  6
CONTINUOUS
 10
76.800000
 20
115.300000
 11
77.000000
 21
115.300000
  0
LINE
  8
BOTH
  6
CONTINUOUS
 10
77.000000
 20
115.300000
 11
77.100000
 21
115.200000
  0
LINE
  8
BOTH
  6
CONTINUOUS
 10
77.100000
 20
115.200000
 11
77.100000
 21
114.600000
  0
LINE
  8
BOTH
  6
CONTINUOUS
 10
77.100000
 20
114.600000
 11
77.500000
 21
114.600000
  0
LINE
  8
BOTH
  6
CONTINUOUS
 10
77.500000
 20
114.600000
 11
77.500000
 21
114.900000
  0
LINE
  8
BOTH
  6
CONTINUOUS
 10
77.500000
 20
114.900000
 11
77.600000
 21
115.000000
  0
LINE
  8
BOTH
  6
CONTINUOUS
 10
77.600000
 20
115.000000
 11
78.300000
 21
115.000000
  0
LINE
  8
BOTH
  6
CONTINUOUS
 10
78.300000
 20
115.000000
 11
78.300000
 21
119.400000
  0
LINE
  8
BOTH
  6
CONTINUOUS
 10
78.300000
 20
119.400000
 11
78.100000
 21
119.600000
  0
LINE
  8
BOTH
  6
CONTINUOUS
 10
78.100000
 20
119.600000
 11
78.100000
 21
121.800000
  0
LINE
  8
BOTH
  6
CONTINUOUS
 10
78.100000
 20
121.800000
 11
78.300000
 21
122.000000
  0
LINE
  8
BOTH
  6
CONTINUOUS
 10
78.300000
 20
122.000000
 11
78.300000
 21
158.800000
  0
LINE
  8
BOTH
  6
CONTINUOUS
 10
78.300000
 20
158.800000
 11
78.100000
 21
159.000000
  0
LINE
  8
BOTH
  6
CONTINUOUS
 10
78.100000
 20
159.000000
 11
78.100000
 21
161.200000
  0
LINE
  8
BOTH
  6
CONTINUOUS
 10
78.100000
 20
161.200000
 11
78.300000
 21
161.400000
  0
LINE
  8
BOTH
  6
CONTINUOUS
 10
78.300000
 20
161.400000
 11
78.300000
 21
165.800000
  0
LINE
  8
BOTH
  6
CONTINUOUS
 10
78.300000
 20
165.800000
 11
77.700000
 21
165.800000
  0
LINE
  8
BOTH
  6
CONTINUOUS
 10
77.700000
 20
165.800000
 11
77.700000
 21
165.500000
  0
LINE
  8
BOTH
  6
CONTINUOUS
 10
77.700000
 20
165.500000
 11
77.600000
 21
165.400000
  0
LINE
  8
BOTH
  6
CONTINUOUS
 10
77.600000
 20
165.400000
 11
76.800000
 21
165.400000
  0
LINE
  8
BOTH
  6
CONTINUOUS
 10
76.800000
 20
165.400000
 11
76.800000
 21
164.800000
  0
LINE
  8
BOTH
  6
CONTINUOUS
 10
76.800000
 20
164.800000
 11
77.000000
 21
164.300000
  0
LINE
  8
BOTH
  6
CONTINUOUS
 10
77.000000
 20
164.300000
 11
77.500000
 21
164.300000
  0
LINE
  8
BOTH
  6
CONTINUOUS
 10
77.500000
 20
164.300000
 11
77.600000
 21
164.200000
  0
LINE
  8
BOTH
  6
CONTINUOUS
 10
77.600000
 20
164.200000
 11
77.600000
 21
163.500000
  0
LINE
  8
BOTH
  6
CONTINUOUS
 10
77.600000
 20
163.500000
 11
77.500000
 21
163.400000
  0
LINE
  8
BOTH
  6
CONTINUOUS
 10
77.500000
 20
163.400000
 11
76.800000
 21
163.400000
  0
LINE
  8
BOTH
  6
CONTINUOUS
 10
76.800000
 20
163.400000
 11
76.700000
 21
163.500000
  0
LINE
  8
BOTH
  6
CONTINUOUS
 10
76.700000
 20
163.500000
 11
76.700000
 21
164.100000
  0
LINE
  8
BOTH
  6
CONTINUOUS
 10
76.700000
 20
164.100000
 11
76.500000
 21
164.400000
  0
LINE
  8
BOTH
  6
CONTINUOUS
 10
76.500000
 20
164.400000
 11
75.700000
 21
164.400000
  0
LINE
  8
BOTH
  6
CONTINUOUS
 10
75.700000
 20
164.400000
 11
75.500000
 21
164.000000
  0
LINE
  8
BOTH
  6
CONTINUOUS
 10
75.500000
 20
164.000000
 11
75.500000
 21
163.500000
  0
LINE
  8
BOTH
  6
CONTINUOUS
 10
75.500000
 20
163.500000
 11
75.400000
 21
163.400000
  0
LINE
  8
BOTH
  6
CONTINUOUS
 10
75.400000
 20
163.400000
 11
74.700000
 21
163.400000
  0
LINE
  8
BOTH
  6
CONTINUOUS
 10
74.700000
 20
163.400000
 11
74.600000
 21
163.500000
  0
LINE
  8
BOTH
  6
CONTINUOUS
 10
74.600000
 20
163.500000
 11
74.600000
 21
164.200000
  0
LINE
  8
BOTH
  6
CONTINUOUS
 10
74.600000
 20
164.200000
 11
74.700000
 21
164.300000
  0
LINE
  8
BOTH
  6
CONTINUOUS
 10
74.700000
 20
164.300000
 11
75.200000
 21
164.300000
  0
LINE
  8
BOTH
  6
CONTINUOUS
 10
75.200000
 20
164.300000
 11
75.400000
 21
164.800000
  0
LINE
  8
BOTH
  6
CONTINUOUS
 10
75.400000
 20
164.800000
 11
75.400000
 21
165.400000
  0
LINE
  8
BOTH
  6
CONTINUOUS
 10
75.400000
 20
165.400000
 11
74.600000
 21
165.400000
  0
LINE
  8
BOTH
  6
CONTINUOUS
 10
74.600000
 20
165.400000
 11
74.500000
 21
165.500000
  0
LINE
  8
BOTH
  6
CONTINUOUS
 10
74.500000
 20
165.500000
 11
74.500000
 21
165.800000
  0
LINE
  8
BOTH
  6
CONTINUOUS
 10
74.500000
 20
165.800000
 11
73.900000
 21
165.800000
  0
LINE
  8
BOTH
  6
CONTINUOUS
 10
73.900000
 20
165.800000
 11
73.900000
 21
162.700000
  0
LINE
  8
BOTH
  6
CONTINUOUS
 10
73.900000
 20
162.700000
 11
74.000000
 21
162.500000
  0
LINE
  8
BOTH
  6
CONTINUOUS
 10
74.000000
 20
162.500000
 11
74.000000
 21
152.400000
  0
LINE
  8
BOTH
  6
CONTINUOUS
 10
74.000000
 20
152.400000
 11
73.900000
 21
152.200000
  0
LINE
  8
BOTH
  6
CONTINUOUS
 10
73.900000
 20
152.200000
 11
73.900000
 21
132.300000
  0
LINE
  8
BOTH
  6
CONTINUOUS
 10
73.900000
 20
132.300000
 11
73.800000
 21
132.200000
  0
LINE
  8
BOTH
  6
CONTINUOUS
 10
73.800000
 20
132.200000
 11
49.800000
 21
132.200000
  0
LINE
  8
BOTH
  6
CONTINUOUS
 10
49.800000
 20
132.200000
 11
49.700000
 21
132.300000
  0
LINE
  8
BOTH
  6
CONTINUOUS
 10
49.700000
 20
132.300000
 11
49.700000
 21
139.300000
  0
LINE
  8
BOTH
  6
CONTINUOUS
 10
49.700000
 20
139.300000
 11
49.500000
 21
139.600000
  0
LINE
  8
BOTH
  6
CONTINUOUS
 10
49.500000
 20
139.600000
 11
49.500000
 21
141.700000
  0
LINE
  8
BOTH
  6
CONTINUOUS
 10
49.500000
 20
141.700000
 11
49.700000
 21
141.800000
  0
LINE
  8
BOTH
  6
CONTINUOUS
 10
49.700000
 20
141.800000
 11
49.700000
 21
150.600000
  0
LINE
  8
BOTH
  6
CONTINUOUS
 10
49.700000
 20
150.600000
 11
48.100000
 21
150.600000
  0
LINE
  8
BOTH
  6
CONTINUOUS
 10
48.100000
 20
150.600000
 11
48.100000
 21
150.300000
  0
LINE
  8
BOTH
  6
CONTINUOUS
 10
48.100000
 20
150.300000
 11
48.000000
 21
150.200000
  0
LINE
  8
BOTH
  6
CONTINUOUS
 10
48.000000
 20
150.200000
 11
47.200000
 21
150.200000
  0
LINE
  8
BOTH
  6
CONTINUOUS
 10
47.200000
 20
150.200000
 11
47.200000
 21
149.600000
  0
LINE
  8
BOTH
  6
CONTINUOUS
 10
47.200000
 20
149.600000
 11
47.400000
 21
149.100000
  0
LINE
  8
BOTH
  6
CONTINUOUS
 10
47.400000
 20
149.100000
 11
47.900000
 21
149.100000
  0
LINE
  8
BOTH
  6
CONTINUOUS
 10
47.900000
 20
149.100000
 11
48.000000
 21
149.000000
  0
LINE
  8
BOTH
  6
CONTINUOUS
 10
48.000000
 20
149.000000
 11
48.000000
 21
148.300000
  0
LINE
  8
BOTH
  6
CONTINUOUS
 10
48.000000
 20
148.300000
 11
47.900000
 21
148.200000
  0
LINE
  8
BOTH
  6
CONTINUOUS
 10
47.900000
 20
148.200000
 11
47.200000
 21
148.200000
  0
LINE
  8
BOTH
  6
CONTINUOUS
 10
47.200000
 20
148.200000
 11
47.100000
 21
148.300000
  0
LINE
  8
BOTH
  6
CONTINUOUS
 10
47.100000
 20
148.300000
 11
47.100000
 21
148.900000
  0
LINE
  8
BOTH
  6
CONTINUOUS
 10
47.100000
 20
148.900000
 11
46.900000
 21
149.200000
  0
LINE
  8
BOTH
  6
CONTINUOUS
 10
46.900000
 20
149.200000
 11
46.100000
 21
149.200000
  0
LINE
  8
BOTH
  6
CONTINUOUS
 10
46.100000
 20
149.200000
 11
45.900000
 21
148.900000
  0
LINE
  8
BOTH
  6
CONTINUOUS
 10
45.900000
 20
148.900000
 11
45.900000
 21
148.300000
  0
LINE
  8
BOTH
  6
CONTINUOUS
 10
45.900000
 20
148.300000
 11
45.800000
 21
148.200000
  0
LINE
  8
BOTH
  6
CONTINUOUS
 10
45.800000
 20
148.200000
 11
45.100000
 21
148.200000
  0
LINE
  8
BOTH
  6
CONTINUOUS
 10
45.100000
 20
148.200000
 11
45.000000
 21
148.300000
  0
LINE
  8
BOTH
  6
CONTINUOUS
 10
45.000000
 20
148.300000
 11
45.000000
 21
149.000000
  0
LINE
  8
BOTH
  6
CONTINUOUS
 10
45.000000
 20
149.000000
 11
45.100000
 21
149.100000
  0
LINE
  8
BOTH
  6
CONTINUOUS
 10
45.100000
 20
149.100000
 11
45.600000
 21
149.100000
  0
LINE
  8
BOTH
  6
CONTINUOUS
 10
45.600000
 20
149.100000
 11
45.800000
 21
149.600000
  0
LINE
  8
BOTH
  6
CONTINUOUS
 10
45.800000
 20
149.600000
 11
45.800000
 21
150.200000
  0
LINE
  8
BOTH
  6
CONTINUOUS
 10
45.800000
 20
150.200000
 11
45.000000
 21
150.200000
  0
LINE
  8
BOTH
  6
CONTINUOUS
 10
45.000000
 20
150.200000
 11
44.900000
 21
150.300000
  0
LINE
  8
BOTH
  6
CONTINUOUS
 10
44.900000
 20
150.300000
 11
44.900000
 21
150.600000
  0
LINE
  8
BOTH
  6
CONTINUOUS
 10
44.900000
 20
150.600000
 11
43.300000
 21
150.600000
  0
LINE
  8
BOTH
  6
CONTINUOUS
 10
43.300000
 20
150.600000
 11
43.300000
 21
132.300000
  0
LINE
  8
BOTH
  6
CONTINUOUS
 10
43.300000
 20
132.300000
 11
43.200000
 21
132.200000
  0
LINE
  8
BOTH
  6
CONTINUOUS
 10
43.200000
 20
132.200000
 11
19.200000
 21
132.200000
  0
LINE
  8
BOTH
  6
CONTINUOUS
 10
19.200000
 20
132.200000
 11
19.100000
 21
132.300000
  0
LINE
  8
BOTH
  6
CONTINUOUS
 10
19.100000
 20
132.300000
 11
19.100000
 21
152.200000
  0
LINE
  8
BOTH
  6
CONTINUOUS
 10
19.100000
 20
152.200000
 11
19.000000
 21
152.300000
  0
LINE
  8
BOTH
  6
CONTINUOUS
 10
19.000000
 20
152.300000
 11
19.000000
 21
162.500000
  0
LINE
  8
BOTH
  6
CONTINUOUS
 10
19.000000
 20
162.500000
 11
19.100000
 21
162.600000
  0
LINE
  8
BOTH
  6
CONTINUOUS
 10
19.100000
 20
162.600000
 11
19.100000
 21
165.800000
  0
LINE
  8
BOTH
  6
CONTINUOUS
 10
19.100000
 20
165.800000
 11
18.500000
 21
165.800000
  0
LINE
  8
BOTH
  6
CONTINUOUS
 10
18.500000
 20
165.800000
 11
18.500000
 21
165.500000
  0
LINE
  8
BOTH
  6
CONTINUOUS
 10
18.500000
 20
165.500000
 11
18.400000
 21
165.400000
  0
LINE
  8
BOTH
  6
CONTINUOUS
 10
18.400000
 20
165.400000
 11
17.600000
 21
165.400000
  0
LINE
  8
BOTH
  6
CONTINUOUS
 10
17.600000
 20
165.400000
 11
17.600000
 21
164.800000
  0
LINE
  8
BOTH
  6
CONTINUOUS
 10
17.600000
 20
164.800000
 11
17.800000
 21
164.300000
  0
LINE
  8
BOTH
  6
CONTINUOUS
 10
17.800000
 20
164.300000
 11
18.300000
 21
164.300000
  0
LINE
  8
BOTH
  6
CONTINUOUS
 10
18.300000
 20
164.300000
 11
18.400000
 21
164.200000
  0
LINE
  8
BOTH
  6
CONTINUOUS
 10
18.400000
 20
164.200000
 11
18.400000
 21
163.500000
  0
LINE
  8
BOTH
  6
CONTINUOUS
 10
18.400000
 20
163.500000
 11
18.300000
 21
163.400000
  0
LINE
  8
BOTH
  6
CONTINUOUS
 10
18.300000
 20
163.400000
 11
17.600000
 21
163.400000
  0
LINE
  8
BOTH
  6
CONTINUOUS
 10
17.600000
 20
163.400000
 11
17.500000
 21
163.500000
  0
LINE
  8
BOTH
  6
CONTINUOUS
 10
17.500000
 20
163.500000
 11
17.500000
 21
164.000000
  0
LINE
  8
BOTH
  6
CONTINUOUS
 10
17.500000
 20
164.000000
 11
17.300000
 21
164.400000
  0
LINE
  8
BOTH
  6
CONTINUOUS
 10
17.300000
 20
164.400000
 11
16.500000
 21
164.400000
  0
LINE
  8
BOTH
  6
CONTINUOUS
 10
16.500000
 20
164.400000
 11
16.300000
 21
164.000000
  0
LINE
  8
BOTH
  6
CONTINUOUS
 10
16.300000
 20
164.000000
 11
16.300000
 21
163.500000
  0
LINE
  8
BOTH
  6
CONTINUOUS
 10
16.300000
 20
163.500000
 11
16.200000
 21
163.400000
  0
LINE
  8
BOTH
  6
CONTINUOUS
 10
16.200000
 20
163.400000
 11
15.500000
 21
163.400000
  0
LINE
  8
BOTH
  6
CONTINUOUS
 10
15.500000
 20
163.400000
 11
15.400000
 21
163.500000
  0
LINE
  8
BOTH
  6
CONTINUOUS
 10
15.400000
 20
163.500000
 11
15.400000
 21
164.200000
  0
LINE
  8
BOTH
  6
CONTINUOUS
 10
15.400000
 20
164.200000
 11
15.500000
 21
164.300000
  0
LINE
  8
BOTH
  6
CONTINUOUS
 10
15.500000
 20
164.300000
 11
16.000000
 21
164.300000
  0
LINE
  8
BOTH
  6
CONTINUOUS
 10
16.000000
 20
164.300000
 11
16.200000
 21
164.800000
  0
LINE
  8
BOTH
  6
CONTINUOUS
 10
16.200000
 20
164.800000
 11
16.200000
 21
165.400000
  0
LINE
  8
BOTH
  6
CONTINUOUS
 10
16.200000
 20
165.400000
 11
15.400000
 21
165.400000
  0
LINE
  8
BOTH
  6
CONTINUOUS
 10
15.400000
 20
165.400000
 11
15.300000
 21
165.500000
  0
LINE
  8
BOTH
  6
CONTINUOUS
 10
15.300000
 20
165.500000
 11
15.300000
 21
165.800000
  0
LINE
  8
BOTH
  6
CONTINUOUS
 10
15.300000
 20
165.800000
 11
14.700000
 21
165.800000
  0
LINE
  8
BOTH
  6
CONTINUOUS
 10
14.700000
 20
165.800000
 11
14.700000
 21
161.400000
  0
LINE
  8
BOTH
  6
CONTINUOUS
 10
14.700000
 20
161.400000
 11
14.900000
 21
161.100000
  0
LINE
  8
BOTH
  6
CONTINUOUS
 10
14.900000
 20
161.100000
 11
14.900000
 21
159.100000
  0
LINE
  8
BOTH
  6
CONTINUOUS
 10
14.900000
 20
159.100000
 11
14.700000
 21
158.800000
  0
LINE
  8
BOTH
  6
CONTINUOUS
 10
14.700000
 20
158.800000
 11
14.700000
 21
121.000000
  0
LINE
  8
BOTH
  6
CONTINUOUS
 10
14.700000
 20
121.000000
 11
14.900000
 21
120.700000
  0
LINE
  8
BOTH
  6
CONTINUOUS
 10
14.900000
 20
120.700000
 11
14.900000
 21
118.700000
  0
LINE
  8
BOTH
  6
CONTINUOUS
 10
14.900000
 20
118.700000
 11
14.700000
 21
118.500000
  0
LINE
  8
BOTH
  6
CONTINUOUS
 10
14.700000
 20
118.500000
 11
14.700000
 21
115.000000
  0
LINE
  8
BOTH
  6
CONTINUOUS
 10
14.700000
 20
115.000000
 11
15.400000
 21
115.000000
  0
LINE
  8
BOTH
  6
CONTINUOUS
 10
15.400000
 20
115.000000
 11
15.500000
 21
114.900000
  0
LINE
  8
BOTH
  6
CONTINUOUS
 10
15.500000
 20
114.900000
 11
15.500000
 21
114.600000
  0
LINE
  8
BOTH
  6
CONTINUOUS
 10
15.500000
 20
114.600000
 11
15.900000
 21
114.600000
  0
LINE
  8
BOTH
  6
CONTINUOUS
 10
15.900000
 20
114.600000
 11
15.900000
 21
115.200000
  0
LINE
  8
BOTH
  6
CONTINUOUS
 10
15.900000
 20
115.200000
 11
16.000000
 21
115.300000
  0
LINE
  8
BOTH
  6
CONTINUOUS
 10
16.000000
 20
115.300000
 11
16.200000
 21
115.300000
  0
LINE
  8
BOTH
  6
CONTINUOUS
 10
16.200000
 20
115.300000
 11
16.300000
 21
115.200000
  0
LINE
  8
BOTH
  6
CONTINUOUS
 10
16.300000
 20
115.200000
 11
16.300000
 21
113.500000
  0
LINE
  8
BOTH
  6
CONTINUOUS
 10
16.300000
 20
113.500000
 11
16.200000
 21
113.400000
  0
LINE
  8
BOTH
  6
CONTINUOUS
 10
16.200000
 20
113.400000
 11
15.500000
 21
113.400000
  0
LINE
  8
BOTH
  6
CONTINUOUS
 10
15.500000
 20
113.400000
 11
15.500000
 21
112.700000
  0
LINE
  8
BOTH
  6
CONTINUOUS
 10
15.500000
 20
112.700000
 11
18.300000
 21
112.700000
  0
LINE
  8
BOTH
  6
CONTINUOUS
 10
18.300000
 20
112.700000
 11
18.300000
 21
113.400000
  0
LINE
  8
BOTH
  6
CONTINUOUS
 10
18.300000
 20
113.400000
 11
17.600000
 21
113.400000
  0
LINE
  8
BOTH
  6
CONTINUOUS
 10
17.600000
 20
113.400000
 11
17.500000
 21
113.500000
  0
LINE
  8
BOTH
  6
CONTINUOUS
 10
17.500000
 20
113.500000
 11
17.500000
 21
115.200000
  0
LINE
  8
BOTH
  6
CONTINUOUS
 10
17.500000
 20
115.200000
 11
17.600000
 21
115.300000
  0
LINE
  8
BOTH
  6
CONTINUOUS
 10
17.600000
 20
115.300000
 11
17.800000
 21
115.300000
  0
LINE
  8
BOTH
  6
CONTINUOUS
 10
17.800000
 20
115.300000
 11
17.900000
 21
115.200000
  0
LINE
  8
BOTH
  6
CONTINUOUS
 10
17.900000
 20
115.200000
 11
17.900000
 21
114.600000
  0
LINE
  8
BOTH
  6
CONTINUOUS
 10
17.900000
 20
114.600000
 11
18.300000
 21
114.600000
  0
LINE
  8
BOTH
  6
CONTINUOUS
 10
18.300000
 20
114.600000
 11
18.300000
 21
114.900000
  0
LINE
  8
BOTH
  6
CONTINUOUS
 10
18.300000
 20
114.900000
 11
18.400000
 21
115.000000
  0
LINE
  8
BOTH
  6
CONTINUOUS
 10
18.400000
 20
115.000000
 11
19.100000
 21
115.000000
  0
LINE
  8
BOTH
  6
CONTINUOUS
 10
19.100000
 20
115.000000
 11
19.100000
 21
116.500000
  0
LINE
  8
BOTH
  6
CONTINUOUS
 10
19.100000
 20
116.500000
 11
19.200000
 21
116.600000
  0
LINE
  8
BOTH
  6
CONTINUOUS
 10
19.200000
 20
116.600000
 11
43.200000
 21
116.600000
  0
LINE
  8
BOTH
  6
CONTINUOUS
 10
43.200000
 20
116.600000
 11
43.300000
 21
116.500000
  0
LINE
  8
BOTH
  6
CONTINUOUS
 10
43.300000
 20
116.500000
 11
43.300000
 21
115.000000
  0
LINE
  8
BOTH
  6
CONTINUOUS
 10
43.300000
 20
115.000000
 11
45.000000
 21
115.000000
  0
LINE
  8
BOTH
  6
CONTINUOUS
 10
45.000000
 20
115.000000
 11
45.100000
 21
114.900000
  0
LINE
  8
BOTH
  6
CONTINUOUS
 10
45.100000
 20
114.900000
 11
45.100000
 21
114.600000
  0
LINE
  8
BOTH
  6
CONTINUOUS
 10
45.100000
 20
114.600000
 11
45.500000
 21
114.600000
  0
LINE
  8
BOTH
  6
CONTINUOUS
 10
45.500000
 20
114.600000
 11
45.500000
 21
115.200000
  0
LINE
  8
BOTH
  6
CONTINUOUS
 10
45.500000
 20
115.200000
 11
45.600000
 21
115.300000
  0
LINE
  8
BOTH
  6
CONTINUOUS
 10
45.600000
 20
115.300000
 11
45.800000
 21
115.300000
  0
LINE
  8
BOTH
  6
CONTINUOUS
 10
45.800000
 20
115.300000
 11
45.900000
 21
115.200000
  0
LINE
  8
BOTH
  6
CONTINUOUS
 10
45.900000
 20
115.200000
 11
45.900000
 21
113.500000
  0
LINE
  8
BOTH
  6
CONTINUOUS
 10
45.900000
 20
113.500000
 11
45.800000
 21
113.400000
  0
LINE
  8
BOTH
  6
CONTINUOUS
 10
45.800000
 20
113.400000
 11
45.100000
 21
113.400000
  0
LINE
  8
BOTH
  6
CONTINUOUS
 10
45.100000
 20
113.400000
 11
45.100000
 21
112.700000
  0
LINE
  8
BOTH
  6
CONTINUOUS
 10
45.100000
 20
112.700000
 11
47.900000
 21
112.700000
  0
LINE
  8
BOTH
  6
CONTINUOUS
 10
47.900000
 20
112.700000
 11
47.900000
 21
113.400000
  0
LINE
  8
BOTH
  6
CONTINUOUS
 10
47.900000
 20
113.400000
 11
47.200000
 21
113.400000
  0
LINE
  8
BOTH
  6
CONTINUOUS
 10
47.200000
 20
113.400000
 11
47.100000
 21
113.500000
  0
LINE
  8
BOTH
  6
CONTINUOUS
 10
47.100000
 20
113.500000
 11
47.100000
 21
115.200000
  0
LINE
  8
BOTH
  6
CONTINUOUS
 10
47.100000
 20
115.200000
 11
47.200000
 21
115.300000
  0
LINE
  8
BOTH
  6
CONTINUOUS
 10
47.200000
 20
115.300000
 11
47.400000
 21
115.300000
  0
LINE
  8
BOTH
  6
CONTINUOUS
 10
47.400000
 20
115.300000
 11
47.500000
 21
115.200000
  0
LINE
  8
BOTH
  6
CONTINUOUS
 10
47.500000
 20
115.200000
 11
47.500000
 21
114.600000
  0
LINE
  8
BOTH
  6
CONTINUOUS
 10
47.500000
 20
114.600000
 11
47.900000
 21
114.600000
  0
LINE
  8
BOTH
  6
CONTINUOUS
 10
47.900000
 20
114.600000
 11
47.900000
 21
114.900000
  0
LINE
  8
BOTH
  6
CONTINUOUS
 10
47.900000
 20
114.900000
 11
48.000000
 21
115.000000
  0
LINE
  8
BOTH
  6
CONTINUOUS
 10
48.000000
 20
115.000000
 11
49.700000
 21
115.000000
  0
LINE
  8
BOTH
  6
CONTINUOUS
 10
49.700000
 20
115.000000
 11
49.700000
 21
116.600000
  0
LINE
  8
BOTH
  6
CONTINUOUS
 10
34.300000
 20
161.400000
 11
34.300000
 21
161.500000
  0
LINE
  8
BOTH
  6
CONTINUOUS
 10
34.300000
 20
161.500000
 11
34.400000
 21
161.700000
  0
LINE
  8
BOTH
  6
CONTINUOUS
 10
34.400000
 20
161.700000
 11
34.500000
 21
161.800000
  0
LINE
  8
BOTH
  6
CONTINUOUS
 10
34.500000
 20
161.800000
 11
34.700000
 21
161.900000
  0
LINE
  8
BOTH
  6
CONTINUOUS
 10
34.700000
 20
161.900000
 11
55.900000
 21
161.900000
  0
LINE
  8
BOTH
  6
CONTINUOUS
 10
55.900000
 20
161.900000
 11
56.100000
 21
161.800000
  0
LINE
  8
BOTH
  6
CONTINUOUS
 10
56.100000
 20
161.800000
 11
56.200000
 21
161.700000
  0
LINE
  8
BOTH
  6
CONTINUOUS
 10
56.200000
 20
161.700000
 11
56.300000
 21
161.500000
  0
LINE
  8
BOTH
  6
CONTINUOUS
 10
56.300000
 20
161.500000
 11
56.300000
 21
161.300000
  0
LINE
  8
BOTH
  6
CONTINUOUS
 10
56.300000
 20
161.300000
 11
56.200000
 21
161.100000
  0
LINE
  8
BOTH
  6
CONTINUOUS
 10
56.200000
 20
161.100000
 11
56.100000
 21
161.000000
  0
LINE
  8
BOTH
  6
CONTINUOUS
 10
56.100000
 20
161.000000
 11
55.900000
 21
160.900000
  0
LINE
  8
BOTH
  6
CONTINUOUS
 10
55.900000
 20
160.900000
 11
34.700000
 21
160.900000
  0
LINE
  8
BOTH
  6
CONTINUOUS
 10
34.700000
 20
160.900000
 11
34.500000
 21
161.000000
  0
LINE
  8
BOTH
  6
CONTINUOUS
 10
34.500000
 20
161.000000
 11
34.400000
 21
161.100000
  0
LINE
  8
BOTH
  6
CONTINUOUS
 10
34.400000
 20
161.100000
 11
34.300000
 21
161.300000
  0
LINE
  8
BOTH
  6
CONTINUOUS
 10
34.300000
 20
161.300000
 11
34.300000
 21
161.400000
  0
LINE
  8
BOTH
  6
CONTINUOUS
 10
34.300000
 20
159.400000
 11
34.300000
 21
159.500000
  0
LINE
  8
BOTH
  6
CONTINUOUS
 10
34.300000
 20
159.500000
 11
34.400000
 21
159.700000
  0
LINE
  8
BOTH
  6
CONTINUOUS
 10
34.400000
 20
159.700000
 11
34.500000
 21
159.800000
  0
LINE
  8
BOTH
  6
CONTINUOUS
 10
34.500000
 20
159.800000
 11
34.700000
 21
159.900000
  0
LINE
  8
BOTH
  6
CONTINUOUS
 10
34.700000
 20
159.900000
 11
55.900000
 21
159.900000
  0
LINE
  8
BOTH
  6
CONTINUOUS
 10
55.900000
 20
159.900000
 11
56.100000
 21
159.800000
  0
LINE
  8
BOTH
  6
CONTINUOUS
 10
56.100000
 20
159.800000
 11
56.200000
 21
159.700000
  0
LINE
  8
BOTH
  6
CONTINUOUS
 10
56.200000
 20
159.700000
 11
56.300000
 21
159.500000
  0
LINE
  8
BOTH
  6
CONTINUOUS
 10
56.300000
 20
159.500000
 11
56.300000
 21
159.300000
  0
LINE
  8
BOTH
  6
CONTINUOUS
 10
56.300000
 20
159.300000
 11
56.200000
 21
159.100000
  0
LINE
  8
BOTH
  6
CONTINUOUS
 10
56.200000
 20
159.100000
 11
56.100000
 21
159.000000
  0
LINE
  8
BOTH
  6
CONTINUOUS
 10
56.100000
 20
159.000000
 11
55.900000
 21
158.900000
  0
LINE
  8
BOTH
  6
CONTINUOUS
 10
55.900000
 20
158.900000
 11
34.700000
 21
158.900000
  0
LINE
  8
BOTH
  6
CONTINUOUS
 10
34.700000
 20
158.900000
 11
34.500000
 21
159.000000
  0
LINE
  8
BOTH
  6
CONTINUOUS
 10
34.500000
 20
159.000000
 11
34.400000
 21
159.100000
  0
LINE
  8
BOTH
  6
CONTINUOUS
 10
34.400000
 20
159.100000
 11
34.300000
 21
159.300000
  0
LINE
  8
BOTH
  6
CONTINUOUS
 10
34.300000
 20
159.300000
 11
34.300000
 21
159.400000
  0
LINE
  8
BOTH
  6
CONTINUOUS
 10
34.300000
 20
157.400000
 11
34.300000
 21
157.500000
  0
LINE
  8
BOTH
  6
CONTINUOUS
 10
34.300000
 20
157.500000
 11
34.400000
 21
157.700000
  0
LINE
  8
BOTH
  6
CONTINUOUS
 10
34.400000
 20
157.700000
 11
34.500000
 21
157.800000
  0
LINE
  8
BOTH
  6
CONTINUOUS
 10
34.500000
 20
157.800000
 11
34.700000
 21
157.900000
  0
LINE
  8
BOTH
  6
CONTINUOUS
 10
34.700000
 20
157.900000
 11
55.900000
 21
157.900000
  0
LINE
  8
BOTH
  6
CONTINUOUS
 10
55.900000
 20
157.900000
 11
56.100000
 21
157.800000
  0
LINE
  8
BOTH
  6
CONTINUOUS
 10
56.100000
 20
157.800000
 11
56.200000
 21
157.700000
  0
LINE
  8
BOTH
  6
CONTINUOUS
 10
56.200000
 20
157.700000
 11
56.300000
 21
157.500000
  0
LINE
  8
BOTH
  6
CONTINUOUS
 10
56.300000
 20
157.500000
 11
56.300000
 21
157.300000
  0
LINE
  8
BOTH
  6
CONTINUOUS
 10
56.300000
 20
157.300000
 11
56.200000
 21
157.100000
  0
LINE
  8
BOTH
  6
CONTINUOUS
 10
56.200000
 20
157.100000
 11
56.100000
 21
157.000000
  0
LINE
  8
BOTH
  6
CONTINUOUS
 10
56.100000
 20
157.000000
 11
55.900000
 21
156.900000
  0
LINE
  8
BOTH
  6
CONTINUOUS
 10
55.900000
 20
156.900000
 11
34.700000
 21
156.900000
  0
LINE
  8
BOTH
  6
CONTINUOUS
 10
34.700000
 20
156.900000
 11
34.500000
 21
157.000000
  0
LINE
  8
BOTH
  6
CONTINUOUS
 10
34.500000
 20
157.000000
 11
34.400000
 21
157.100000
  0
LINE
  8
BOTH
  6
CONTINUOUS
 10
34.400000
 20
157.100000
 11
34.300000
 21
157.300000
  0
LINE
  8
BOTH
  6
CONTINUOUS
 10
34.300000
 20
157.300000
 11
34.300000
 21
157.400000
  0
LINE
  8
BOTH
  6
CONTINUOUS
 10
46.500000
 20
147.700000
 11
46.600000
 21
147.700000
  0
LINE
  8
BOTH
  6
CONTINUOUS
 10
46.600000
 20
147.700000
 11
46.800000
 21
147.600000
  0
LINE
  8
BOTH
  6
CONTINUOUS
 10
46.800000
 20
147.600000
 11
46.900000
 21
147.500000
  0
LINE
  8
BOTH
  6
CONTINUOUS
 10
46.900000
 20
147.500000
 11
47.000000
 21
147.300000
  0
LINE
  8
BOTH
  6
CONTINUOUS
 10
47.000000
 20
147.300000
 11
47.000000
 21
137.100000
  0
LINE
  8
BOTH
  6
CONTINUOUS
 10
47.000000
 20
137.100000
 11
46.900000
 21
136.900000
  0
LINE
  8
BOTH
  6
CONTINUOUS
 10
46.900000
 20
136.900000
 11
46.800000
 21
136.800000
  0
LINE
  8
BOTH
  6
CONTINUOUS
 10
46.800000
 20
136.800000
 11
46.600000
 21
136.700000
  0
LINE
  8
BOTH
  6
CONTINUOUS
 10
46.600000
 20
136.700000
 11
46.400000
 21
136.700000
  0
LINE
  8
BOTH
  6
CONTINUOUS
 10
46.400000
 20
136.700000
 11
46.200000
 21
136.800000
  0
LINE
  8
BOTH
  6
CONTINUOUS
 10
46.200000
 20
136.800000
 11
46.100000
 21
136.900000
  0
LINE
  8
BOTH
  6
CONTINUOUS
 10
46.100000
 20
136.900000
 11
46.000000
 21
137.100000
  0
LINE
  8
BOTH
  6
CONTINUOUS
 10
46.000000
 20
137.100000
 11
46.000000
 21
147.300000
  0
LINE
  8
BOTH
  6
CONTINUOUS
 10
46.000000
 20
147.300000
 11
46.100000
 21
147.500000
  0
LINE
  8
BOTH
  6
CONTINUOUS
 10
46.100000
 20
147.500000
 11
46.200000
 21
147.600000
  0
LINE
  8
BOTH
  6
CONTINUOUS
 10
46.200000
 20
147.600000
 11
46.400000
 21
147.700000
  0
LINE
  8
BOTH
  6
CONTINUOUS
 10
46.400000
 20
147.700000
 11
46.500000
 21
147.700000
  0
LINE
  8
BOTH
  6
CONTINUOUS
 10
19.500000
 20
129.900000
 11
19.600000
 21
129.900000
  0
LINE
  8
BOTH
  6
CONTINUOUS
 10
19.600000
 20
129.900000
 11
19.800000
 21
129.800000
  0
LINE
  8
BOTH
  6
CONTINUOUS
 10
19.800000
 20
129.800000
 11
19.900000
 21
129.700000
  0
LINE
  8
BOTH
  6
CONTINUOUS
 10
19.900000
 20
129.700000
 11
20.000000
 21
129.500000
  0
LINE
  8
BOTH
  6
CONTINUOUS
 10
20.000000
 20
129.500000
 11
20.000000
 21
119.300000
  0
LINE
  8
BOTH
  6
CONTINUOUS
 10
20.000000
 20
119.300000
 11
19.900000
 21
119.100000
  0
LINE
  8
BOTH
  6
CONTINUOUS
 10
19.900000
 20
119.100000
 11
19.800000
 21
119.000000
  0
LINE
  8
BOTH
  6
CONTINUOUS
 10
19.800000
 20
119.000000
 11
19.600000
 21
118.900000
  0
LINE
  8
BOTH
  6
CONTINUOUS
 10
19.600000
 20
118.900000
 11
19.400000
 21
118.900000
  0
LINE
  8
BOTH
  6
CONTINUOUS
 10
19.400000
 20
118.900000
 11
19.200000
 21
119.000000
  0
LINE
  8
BOTH
  6
CONTINUOUS
 10
19.200000
 20
119.000000
 11
19.100000
 21
119.100000
  0
LINE
  8
BOTH
  6
CONTINUOUS
 10
19.100000
 20
119.100000
 11
19.000000
 21
119.300000
  0
LINE
  8
BOTH
  6
CONTINUOUS
 10
19.000000
 20
119.300000
 11
19.000000
 21
129.500000
  0
LINE
  8
BOTH
  6
CONTINUOUS
 10
19.000000
 20
129.500000
 11
19.100000
 21
129.700000
  0
LINE
  8
BOTH
  6
CONTINUOUS
 10
19.100000
 20
129.700000
 11
19.200000
 21
129.800000
  0
LINE
  8
BOTH
  6
CONTINUOUS
 10
19.200000
 20
129.800000
 11
19.400000
 21
129.900000
  0
LINE
  8
BOTH
  6
CONTINUOUS
 10
19.400000
 20
129.900000
 11
19.500000
 21
129.900000
  0
LINE
  8
BOTH
  6
CONTINUOUS
 10
46.500000
 20
129.900000
 11
46.600000
 21
129.900000
  0
LINE
  8
BOTH
  6
CONTINUOUS
 10
46.600000
 20
129.900000
 11
46.800000
 21
129.800000
  0
LINE
  8
BOTH
  6
CONTINUOUS
 10
46.800000
 20
129.800000
 11
46.900000
 21
129.700000
  0
LINE
  8
BOTH
  6
CONTINUOUS
 10
46.900000
 20
129.700000
 11
47.000000
 21
129.500000
  0
LINE
  8
BOTH
  6
CONTINUOUS
 10
47.000000
 20
129.500000
 11
47.000000
 21
119.300000
  0
LINE
  8
BOTH
  6
CONTINUOUS
 10
47.000000
 20
119.300000
 11
46.900000
 21
119.100000
  0
LINE
  8
BOTH
  6
CONTINUOUS
 10
46.900000
 20
119.100000
 11
46.800000
 21
119.000000
  0
LINE
  8
BOTH
  6
CONTINUOUS
 10
46.800000
 20
119.000000
 11
46.600000
 21
118.900000
  0
LINE
  8
BOTH
  6
CONTINUOUS
 10
46.600000
 20
118.900000
 11
46.400000
 21
118.900000
  0
LINE
  8
BOTH
  6
CONTINUOUS
 10
46.400000
 20
118.900000
 11
46.200000
 21
119.000000
  0
LINE
  8
BOTH
  6
CONTINUOUS
 10
46.200000
 20
119.000000
 11
46.100000
 21
119.100000
  0
LINE
  8
BOTH
  6
CONTINUOUS
 10
46.100000
 20
119.100000
 11
46.000000
 21
119.300000
  0
LINE
  8
BOTH
  6
CONTINUOUS
 10
46.000000
 20
119.300000
 11
46.000000
 21
129.500000
  0
LINE
  8
BOTH
  6
CONTINUOUS
 10
46.000000
 20
129.500000
 11
46.100000
 21
129.700000
  0
LINE
  8
BOTH
  6
CONTINUOUS
 10
46.100000
 20
129.700000
 11
46.200000
 21
129.800000
  0
LINE
  8
BOTH
  6
CONTINUOUS
 10
46.200000
 20
129.800000
 11
46.400000
 21
129.900000
  0
LINE
  8
BOTH
  6
CONTINUOUS
 10
46.400000
 20
129.900000
 11
46.500000
 21
129.900000
  0
LINE
  8
BOTH
  6
CONTINUOUS
 10
73.500000
 20
129.900000
 11
73.600000
 21
129.900000
  0
LINE
  8
BOTH
  6
CONTINUOUS
 10
73.600000
 20
129.900000
 11
73.800000
 21
129.800000
  0
LINE
  8
BOTH
  6
CONTINUOUS
 10
73.800000
 20
129.800000
 11
73.900000
 21
129.700000
  0
LINE
  8
BOTH
  6
CONTINUOUS
 10
73.900000
 20
129.700000
 11
74.000000
 21
129.500000
  0
LINE
  8
BOTH
  6
CONTINUOUS
 10
74.000000
 20
129.500000
 11
74.000000
 21
119.300000
  0
LINE
  8
BOTH
  6
CONTINUOUS
 10
74.000000
 20
119.300000
 11
73.900000
 21
119.100000
  0
LINE
  8
BOTH
  6
CONTINUOUS
 10
73.900000
 20
119.100000
 11
73.800000
 21
119.000000
  0
LINE
  8
BOTH
  6
CONTINUOUS
 10
73.800000
 20
119.000000
 11
73.600000
 21
118.900000
  0
LINE
  8
BOTH
  6
CONTINUOUS
 10
73.600000
 20
118.900000
 11
73.400000
 21
118.900000
  0
LINE
  8
BOTH
  6
CONTINUOUS
 10
73.400000
 20
118.900000
 11
73.200000
 21
119.000000
  0
LINE
  8
BOTH
  6
CONTINUOUS
 10
73.200000
 20
119.000000
 11
73.100000
 21
119.100000
  0
LINE
  8
BOTH
  6
CONTINUOUS
 10
73.100000
 20
119.100000
 11
73.000000
 21
119.300000
  0
LINE
  8
BOTH
  6
CONTINUOUS
 10
73.000000
 20
119.300000
 11
73.000000
 21
129.500000
  0
LINE
  8
BOTH
  6
CONTINUOUS
 10
73.000000
 20
129.500000
 11
73.100000
 21
129.700000
  0
LINE
  8
BOTH
  6
CONTINUOUS
 10
73.100000
 20
129.700000
 11
73.200000
 21
129.800000
  0
LINE
  8
BOTH
  6
CONTINUOUS
 10
73.200000
 20
129.800000
 11
73.400000
 21
129.900000
  0
LINE
  8
BOTH
  6
CONTINUOUS
 10
73.400000
 20
129.900000
 11
73.500000
 21
129.900000
  0
CIRCLE
  8
BOTH
  6
CONTINUOUS
 10
61.300000
 20
159.400000
 40
2.500000
  0
LINE
  8
BOTH
  6
CONTINUOUS
 10
86.600000
 20
190.700000
 11
88.100000
 21
189.200000
  0
LINE
  8
BOTH
  6
CONTINUOUS
 10
88.100000
 20
189.200000
 11
88.100000
 21
186.600000
  0
LINE
  8
BOTH
  6
CONTINUOUS
 10
88.100000
 20
186.600000
 11
86.600000
 21
185.100000
  0
LINE
  8
BOTH
  6
CONTINUOUS
 10
86.600000
 20
185.100000
 11
77.000000
 21
185.100000
  0
LINE
  8
BOTH
  6
CONTINUOUS
 10
77.000000
 20
185.100000
 11
76.900000
 21
185.000000
  0
LINE
  8
BOTH
  6
CONTINUOUS
 10
76.900000
 20
185.000000
 11
76.900000
 21
182.100000
  0
LINE
  8
BOTH
  6
CONTINUOUS
 10
76.900000
 20
182.100000
 11
73.700000
 21
180.600000
  0
LINE
  8
BOTH
  6
CONTINUOUS
 10
73.700000
 20
180.600000
 11
70.600000
 21
180.600000
  0
LINE
  8
BOTH
  6
CONTINUOUS
 10
70.600000
 20
180.600000
 11
70.500000
 21
180.500000
  0
LINE
  8
BOTH
  6
CONTINUOUS
 10
70.500000
 20
180.500000
 11
70.500000
 21
175.800000
  0
LINE
  8
BOTH
  6
CONTINUOUS
 10
70.500000
 20
175.800000
 11
70.600000
 21
175.600000
  0
LINE
  8
BOTH
  6
CONTINUOUS
 10
70.600000
 20
175.600000
 11
73.700000
 21
175.600000
  0
LINE
  8
BOTH
  6
CONTINUOUS
 10
73.700000
 20
175.600000
 11
76.800000
 21
174.200000
  0
LINE
  8
BOTH
  6
CONTINUOUS
 10
76.800000
 20
174.200000
 11
76.900000
 21
174.000000
  0
LINE
  8
BOTH
  6
CONTINUOUS
 10
76.900000
 20
174.000000
 11
76.900000
 21
173.800000
  0
LINE
  8
BOTH
  6
CONTINUOUS
 10
76.900000
 20
173.800000
 11
76.700000
 21
173.400000
  0
LINE
  8
BOTH
  6
CONTINUOUS
 10
76.700000
 20
173.400000
 11
76.500000
 21
173.200000
  0
LINE
  8
BOTH
  6
CONTINUOUS
 10
76.500000
 20
173.200000
 11
76.300000
 21
173.100000
  0
LINE
  8
BOTH
  6
CONTINUOUS
 10
76.300000
 20
173.100000
 11
70.600000
 21
173.100000
  0
LINE
  8
BOTH
  6
CONTINUOUS
 10
70.600000
 20
173.100000
 11
70.500000
 21
173.200000
  0
LINE
  8
BOTH
  6
CONTINUOUS
 10
70.500000
 20
173.200000
 11
70.300000
 21
173.300000
  0
LINE
  8
BOTH
  6
CONTINUOUS
 10
70.300000
 20
173.300000
 11
68.300000
 21
173.300000
  0
LINE
  8
BOTH
  6
CONTINUOUS
 10
68.300000
 20
173.300000
 11
68.100000
 21
173.200000
  0
LINE
  8
BOTH
  6
CONTINUOUS
 10
68.100000
 20
173.200000
 11
68.000000
 21
173.100000
  0
LINE
  8
BOTH
  6
CONTINUOUS
 10
68.000000
 20
173.100000
 11
15.500000
 21
173.100000
  0
LINE
  8
BOTH
  6
CONTINUOUS
 10
15.500000
 20
173.100000
 11
15.200000
 21
173.200000
  0
LINE
  8
BOTH
  6
CONTINUOUS
 10
15.200000
 20
173.200000
 11
15.000000
 21
173.400000
  0
LINE
  8
BOTH
  6
CONTINUOUS
 10
15.000000
 20
173.400000
 11
14.900000
 21
173.700000
  0
LINE
  8
BOTH
  6
CONTINUOUS
 10
14.900000
 20
173.700000
 11
14.900000
 21
174.900000
  0
LINE
  8
BOTH
  6
CONTINUOUS
 10
14.900000
 20
174.900000
 11
15.000000
 21
175.000000
  0
LINE
  8
BOTH
  6
CONTINUOUS
 10
15.000000
 20
175.000000
 11
15.100000
 21
175.200000
  0
LINE
  8
BOTH
  6
CONTINUOUS
 10
15.100000
 20
175.200000
 11
15.100000
 21
177.200000
  0
LINE
  8
BOTH
  6
CONTINUOUS
 10
15.100000
 20
177.200000
 11
15.000000
 21
177.400000
  0
LINE
  8
BOTH
  6
CONTINUOUS
 10
15.000000
 20
177.400000
 11
14.900000
 21
177.500000
  0
LINE
  8
BOTH
  6
CONTINUOUS
 10
14.900000
 20
177.500000
 11
14.900000
 21
190.200000
  0
LINE
  8
BOTH
  6
CONTINUOUS
 10
14.900000
 20
190.200000
 11
15.000000
 21
190.400000
  0
LINE
  8
BOTH
  6
CONTINUOUS
 10
15.000000
 20
190.400000
 11
15.200000
 21
190.600000
  0
LINE
  8
BOTH
  6
CONTINUOUS
 10
15.200000
 20
190.600000
 11
15.400000
 21
190.700000
  0
LINE
  8
BOTH
  6
CONTINUOUS
 10
15.400000
 20
190.700000
 11
39.300000
 21
190.700000
  0
LINE
  8
BOTH
  6
CONTINUOUS
 10
39.300000
 20
190.700000
 11
39.500000
 21
190.600000
  0
LINE
  8
BOTH
  6
CONTINUOUS
 10
39.500000
 20
190.600000
 11
39.800000
 21
190.300000
  0
LINE
  8
BOTH
  6
CONTINUOUS
 10
39.800000
 20
190.300000
 11
39.900000
 21
190.100000
  0
LINE
  8
BOTH
  6
CONTINUOUS
 10
39.900000
 20
190.100000
 11
39.900000
 21
183.200000
  0
LINE
  8
BOTH
  6
CONTINUOUS
 10
39.900000
 20
183.200000
 11
40.000000
 21
183.100000
  0
LINE
  8
BOTH
  6
CONTINUOUS
 10
40.000000
 20
183.100000
 11
53.700000
 21
183.100000
  0
LINE
  8
BOTH
  6
CONTINUOUS
 10
53.700000
 20
183.100000
 11
53.800000
 21
183.200000
  0
LINE
  8
BOTH
  6
CONTINUOUS
 10
53.800000
 20
183.200000
 11
53.800000
 21
190.100000
  0
LINE
  8
BOTH
  6
CONTINUOUS
 10
53.800000
 20
190.100000
 11
53.900000
 21
190.400000
  0
LINE
  8
BOTH
  6
CONTINUOUS
 10
53.900000
 20
190.400000
 11
54.100000
 21
190.600000
  0
LINE
  8
BOTH
  6
CONTINUOUS
 10
54.100000
 20
190.600000
 11
54.400000
 21
190.700000
  0
LINE
  8
BOTH
  6
CONTINUOUS
 10
54.400000
 20
190.700000
 11
68.000000
 21
190.700000
  0
LINE
  8
BOTH
  6
CONTINUOUS
 10
68.000000
 20
190.700000
 11
68.100000
 21
190.600000
  0
LINE
  8
BOTH
  6
CONTINUOUS
 10
68.100000
 20
190.600000
 11
68.300000
 21
190.500000
  0
LINE
  8
BOTH
  6
CONTINUOUS
 10
68.300000
 20
190.500000
 11
70.300000
 21
190.500000
  0
LINE
  8
BOTH
  6
CONTINUOUS
 10
70.300000
 20
190.500000
 11
70.500000
 21
190.600000
  0
LINE
  8
BOTH
  6
CONTINUOUS
 10
70.500000
 20
190.600000
 11
70.600000
 21
190.700000
  0
LINE
  8
BOTH
  6
CONTINUOUS
 10
70.600000
 20
190.700000
 11
86.600000
 21
190.700000
  0
CIRCLE
  8
BOTH
  6
CONTINUOUS
 10
84.900000
 20
187.900000
 40
1.200000
  0
LINE
  8
BOTH
  6
CONTINUOUS
 10
17.600000
 20
187.800000
 11
36.500000
 21
187.800000
  0
LINE
  8
BOTH
  6
CONTINUOUS
 10
36.500000
 20
187.800000
 11
36.700000
 21
187.700000
  0
LINE
  8
BOTH
  6
CONTINUOUS
 10
36.700000
 20
187.700000
 11
36.800000
 21
187.600000
  0
LINE
  8
BOTH
  6
CONTINUOUS
 10
36.800000
 20
187.600000
 11
36.900000
 21
187.400000
  0
LINE
  8
BOTH
  6
CONTINUOUS
 10
36.900000
 20
187.400000
 11
36.900000
 21
187.200000
  0
LINE
  8
BOTH
  6
CONTINUOUS
 10
36.900000
 20
187.200000
 11
36.800000
 21
187.000000
  0
LINE
  8
BOTH
  6
CONTINUOUS
 10
36.800000
 20
187.000000
 11
36.700000
 21
186.900000
  0
LINE
  8
BOTH
  6
CONTINUOUS
 10
36.700000
 20
186.900000
 11
36.500000
 21
186.800000
  0
LINE
  8
BOTH
  6
CONTINUOUS
 10
36.500000
 20
186.800000
 11
17.600000
 21
186.800000
  0
LINE
  8
BOTH
  6
CONTINUOUS
 10
17.600000
 20
186.800000
 11
17.400000
 21
186.900000
  0
LINE
  8
BOTH
  6
CONTINUOUS
 10
17.400000
 20
186.900000
 11
17.300000
 21
187.000000
  0
LINE
  8
BOTH
  6
CONTINUOUS
 10
17.300000
 20
187.000000
 11
17.200000
 21
187.200000
  0
LINE
  8
BOTH
  6
CONTINUOUS
 10
17.200000
 20
187.200000
 11
17.200000
 21
187.400000
  0
LINE
  8
BOTH
  6
CONTINUOUS
 10
17.200000
 20
187.400000
 11
17.300000
 21
187.600000
  0
LINE
  8
BOTH
  6
CONTINUOUS
 10
17.300000
 20
187.600000
 11
17.400000
 21
187.700000
  0
LINE
  8
BOTH
  6
CONTINUOUS
 10
17.400000
 20
187.700000
 11
17.600000
 21
187.800000
  0
LINE
  8
BOTH
  6
CONTINUOUS
 10
17.600000
 20
187.800000
 11
17.800000
 21
187.800000
  0
LINE
  8
BOTH
  6
CONTINUOUS
 10
17.600000
 20
184.800000
 11
36.500000
 21
184.800000
  0
LINE
  8
BOTH
  6
CONTINUOUS
 10
36.500000
 20
184.800000
 11
36.700000
 21
184.700000
  0
LINE
  8
BOTH
  6
CONTINUOUS
 10
36.700000
 20
184.700000
 11
36.800000
 21
184.600000
  0
LINE
  8
BOTH
  6
CONTINUOUS
 10
36.800000
 20
184.600000
 11
36.900000
 21
184.400000
  0
LINE
  8
BOTH
  6
CONTINUOUS
 10
36.900000
 20
184.400000
 11
36.900000
 21
184.200000
  0
LINE
  8
BOTH
  6
CONTINUOUS
 10
36.900000
 20
184.200000
 11
36.800000
 21
184.000000
  0
LINE
  8
BOTH
  6
CONTINUOUS
 10
36.800000
 20
184.000000
 11
36.700000
 21
183.900000
  0
LINE
  8
BOTH
  6
CONTINUOUS
 10
36.700000
 20
183.900000
 11
36.500000
 21
183.800000
  0
LINE
  8
BOTH
  6
CONTINUOUS
 10
36.500000
 20
183.800000
 11
17.600000
 21
183.800000
  0
LINE
  8
BOTH
  6
CONTINUOUS
 10
17.600000
 20
183.800000
 11
17.400000
 21
183.900000
  0
LINE
  8
BOTH
  6
CONTINUOUS
 10
17.400000
 20
183.900000
 11
17.300000
 21
184.000000
  0
LINE
  8
BOTH
  6
CONTINUOUS
 10
17.300000
 20
184.000000
 11
17.200000
 21
184.200000
  0
LINE
  8
BOTH
  6
CONTINUOUS
 10
17.200000
 20
184.200000
 11
17.200000
 21
184.400000
  0
LINE
  8
BOTH
  6
CONTINUOUS
 10
17.200000
 20
184.400000
 11
17.300000
 21
184.600000
  0
LINE
  8
BOTH
  6
CONTINUOUS
 10
17.300000
 20
184.600000
 11
17.400000
 21
184.700000
  0
LINE
  8
BOTH
  6
CONTINUOUS
 10
17.400000
 20
184.700000
 11
17.600000
 21
184.800000
  0
LINE
  8
BOTH
  6
CONTINUOUS
 10
17.600000
 20
184.800000
 11
17.800000
 21
184.800000
  0
LINE
  8
BOTH
  6
CONTINUOUS
 10
28.700000
 20
181.800000
 11
38.900000
 21
181.800000
  0
LINE
  8
BOTH
  6
CONTINUOUS
 10
38.900000
 20
181.800000
 11
39.100000
 21
181.700000
  0
LINE
  8
BOTH
  6
CONTINUOUS
 10
39.100000
 20
181.700000
 11
39.200000
 21
181.600000
  0
LINE
  8
BOTH
  6
CONTINUOUS
 10
39.200000
 20
181.600000
 11
39.300000
 21
181.400000
  0
LINE
  8
BOTH
  6
CONTINUOUS
 10
39.300000
 20
181.400000
 11
39.300000
 21
181.200000
  0
LINE
  8
BOTH
  6
CONTINUOUS
 10
39.300000
 20
181.200000
 11
39.200000
 21
181.000000
  0
LINE
  8
BOTH
  6
CONTINUOUS
 10
39.200000
 20
181.000000
 11
39.100000
 21
180.900000
  0
LINE
  8
BOTH
  6
CONTINUOUS
 10
39.100000
 20
180.900000
 11
38.900000
 21
180.800000
  0
LINE
  8
BOTH
  6
CONTINUOUS
 10
38.900000
 20
180.800000
 11
28.700000
 21
180.800000
  0
LINE
  8
BOTH
  6
CONTINUOUS
 10
28.700000
 20
180.800000
 11
28.500000
 21
180.900000
  0
LINE
  8
BOTH
  6
CONTINUOUS
 10
28.500000
 20
180.900000
 11
28.400000
 21
181.000000
  0
LINE
  8
BOTH
  6
CONTINUOUS
 10
28.400000
 20
181.000000
 11
28.300000
 21
181.200000
  0
LINE
  8
BOTH
  6
CONTINUOUS
 10
28.300000
 20
181.200000
 11
28.300000
 21
181.400000
  0
LINE
  8
BOTH
  6
CONTINUOUS
 10
28.300000
 20
181.400000
 11
28.400000
 21
181.600000
  0
LINE
  8
BOTH
  6
CONTINUOUS
 10
28.400000
 20
181.600000
 11
28.500000
 21
181.700000
  0
LINE
  8
BOTH
  6
CONTINUOUS
 10
28.500000
 20
181.700000
 11
28.700000
 21
181.800000
  0
LINE
  8
BOTH
  6
CONTINUOUS
 10
28.700000
 20
181.800000
 11
28.900000
 21
181.800000
  0
LINE
  8
BOTH
  6
CONTINUOUS
 10
28.700000
 20
178.800000
 11
38.900000
 21
178.800000
  0
LINE
  8
BOTH
  6
CONTINUOUS
 10
38.900000
 20
178.800000
 11
39.100000
 21
178.700000
  0
LINE
  8
BOTH
  6
CONTINUOUS
 10
39.100000
 20
178.700000
 11
39.200000
 21
178.600000
  0
LINE
  8
BOTH
  6
CONTINUOUS
 10
39.200000
 20
178.600000
 11
39.300000
 21
178.400000
  0
LINE
  8
BOTH
  6
CONTINUOUS
 10
39.300000
 20
178.400000
 11
39.300000
 21
178.200000
  0
LINE
  8
BOTH
  6
CONTINUOUS
 10
39.300000
 20
178.200000
 11
39.200000
 21
178.000000
  0
LINE
  8
BOTH
  6
CONTINUOUS
 10
39.200000
 20
178.000000
 11
39.100000
 21
177.900000
  0
LINE
  8
BOTH
  6
CONTINUOUS
 10
39.100000
 20
177.900000
 11
38.900000
 21
177.800000
  0
LINE
  8
BOTH
  6
CONTINUOUS
 10
38.900000
 20
177.800000
 11
28.700000
 21
177.800000
  0
LINE
  8
BOTH
  6
CONTINUOUS
 10
28.700000
 20
177.800000
 11
28.500000
 21
177.900000
  0
LINE
  8
BOTH
  6
CONTINUOUS
 10
28.500000
 20
177.900000
 11
28.400000
 21
178.000000
  0
LINE
  8
BOTH
  6
CONTINUOUS
 10
28.400000
 20
178.000000
 11
28.300000
 21
178.200000
  0
LINE
  8
BOTH
  6
CONTINUOUS
 10
28.300000
 20
178.200000
 11
28.300000
 21
178.400000
  0
LINE
  8
BOTH
  6
CONTINUOUS
 10
28.300000
 20
178.400000
 11
28.400000
 21
178.600000
  0
LINE
  8
BOTH
  6
CONTINUOUS
 10
28.400000
 20
178.600000
 11
28.500000
 21
178.700000
  0
LINE
  8
BOTH
  6
CONTINUOUS
 10
28.500000
 20
178.700000
 11
28.700000
 21
178.800000
  0
LINE
  8
BOTH
  6
CONTINUOUS
 10
28.700000
 20
178.800000
 11
28.900000
 21
178.800000
  0
LINE
  8
BOTH
  6
CONTINUOUS
 10
28.700000
 20
175.800000
 11
38.900000
 21
175.800000
  0
LINE
  8
BOTH
  6
CONTINUOUS
 10
38.900000
 20
175.800000
 11
39.100000
 21
175.700000
  0
LINE
  8
BOTH
  6
CONTINUOUS
 10
39.100000
 20
175.700000
 11
39.200000
 21
175.600000
  0
LINE
  8
BOTH
  6
CONTINUOUS
 10
39.200000
 20
175.600000
 11
39.300000
 21
175.400000
  0
LINE
  8
BOTH
  6
CONTINUOUS
 10
39.300000
 20
175.400000
 11
39.300000
 21
175.200000
  0
LINE
  8
BOTH
  6
CONTINUOUS
 10
39.300000
 20
175.200000
 11
39.200000
 21
175.000000
  0
LINE
  8
BOTH
  6
CONTINUOUS
 10
39.200000
 20
175.000000
 11
39.100000
 21
174.900000
  0
LINE
  8
BOTH
  6
CONTINUOUS
 10
39.100000
 20
174.900000
 11
38.900000
 21
174.800000
  0
LINE
  8
BOTH
  6
CONTINUOUS
 10
38.900000
 20
174.800000
 11
28.700000
 21
174.800000
  0
LINE
  8
BOTH
  6
CONTINUOUS
 10
28.700000
 20
174.800000
 11
28.500000
 21
174.900000
  0
LINE
  8
BOTH
  6
CONTINUOUS
 10
28.500000
 20
174.900000
 11
28.400000
 21
175.000000
  0
LINE
  8
BOTH
  6
CONTINUOUS
 10
28.400000
 20
175.000000
 11
28.300000
 21
175.200000
  0
LINE
  8
BOTH
  6
CONTINUOUS
 10
28.300000
 20
175.200000
 11
28.300000
 21
175.400000
  0
LINE
  8
BOTH
  6
CONTINUOUS
 10
28.300000
 20
175.400000
 11
28.400000
 21
175.600000
  0
LINE
  8
BOTH
  6
CONTINUOUS
 10
28.400000
 20
175.600000
 11
28.500000
 21
175.700000
  0
LINE
  8
BOTH
  6
CONTINUOUS
 10
28.500000
 20
175.700000
 11
28.700000
 21
175.800000
  0
LINE
  8
BOTH
  6
CONTINUOUS
 10
28.700000
 20
175.800000
 11
28.900000
 21
175.800000
  0
LINE
  8
BOTH
  6
CONTINUOUS
 10
56.600000
 20
175.800000
 11
66.800000
 21
175.800000
  0
LINE
  8
BOTH
  6
CONTINUOUS
 10
66.800000
 20
175.800000
 11
67.000000
 21
175.700000
  0
LINE
  8
BOTH
  6
CONTINUOUS
 10
67.000000
 20
175.700000
 11
67.100000
 21
175.600000
  0
LINE
  8
BOTH
  6
CONTINUOUS
 10
67.100000
 20
175.600000
 11
67.200000
 21
175.400000
  0
LINE
  8
BOTH
  6
CONTINUOUS
 10
67.200000
 20
175.400000
 11
67.200000
 21
175.200000
  0
LINE
  8
BOTH
  6
CONTINUOUS
 10
67.200000
 20
175.200000
 11
67.100000
 21
175.000000
  0
LINE
  8
BOTH
  6
CONTINUOUS
 10
67.100000
 20
175.000000
 11
67.000000
 21
174.900000
  0
LINE
  8
BOTH
  6
CONTINUOUS
 10
67.000000
 20
174.900000
 11
66.800000
 21
174.800000
  0
LINE
  8
BOTH
  6
CONTINUOUS
 10
66.800000
 20
174.800000
 11
56.600000
 21
174.800000
  0
LINE
  8
BOTH
  6
CONTINUOUS
 10
56.600000
 20
174.800000
 11
56.400000
 21
174.900000
  0
LINE
  8
BOTH
  6
CONTINUOUS
 10
56.400000
 20
174.900000
 11
56.300000
 21
175.000000
  0
LINE
  8
BOTH
  6
CONTINUOUS
 10
56.300000
 20
175.000000
 11
56.200000
 21
175.200000
  0
LINE
  8
BOTH
  6
CONTINUOUS
 10
56.200000
 20
175.200000
 11
56.200000
 21
175.400000
  0
LINE
  8
BOTH
  6
CONTINUOUS
 10
56.200000
 20
175.400000
 11
56.300000
 21
175.600000
  0
LINE
  8
BOTH
  6
CONTINUOUS
 10
56.300000
 20
175.600000
 11
56.400000
 21
175.700000
  0
LINE
  8
BOTH
  6
CONTINUOUS
 10
56.400000
 20
175.700000
 11
56.600000
 21
175.800000
  0
LINE
  8
BOTH
  6
CONTINUOUS
 10
56.600000
 20
175.800000
 11
56.800000
 21
175.800000
  0
LINE
  8
BOTH
  6
CONTINUOUS
 10
56.600000
 20
178.800000
 11
66.800000
 21
178.800000
  0
LINE
  8
BOTH
  6
CONTINUOUS
 10
66.800000
 20
178.800000
 11
67.000000
 21
178.700000
  0
LINE
  8
BOTH
  6
CONTINUOUS
 10
67.000000
 20
178.700000
 11
67.100000
 21
178.600000
  0
LINE
  8
BOTH
  6
CONTINUOUS
 10
67.100000
 20
178.600000
 11
67.200000
 21
178.400000
  0
LINE
  8
BOTH
  6
CONTINUOUS
 10
67.200000
 20
178.400000
 11
67.200000
 21
178.200000
  0
LINE
  8
BOTH
  6
CONTINUOUS
 10
67.200000
 20
178.200000
 11
67.100000
 21
178.000000
  0
LINE
  8
BOTH
  6
CONTINUOUS
 10
67.100000
 20
178.000000
 11
67.000000
 21
177.900000
  0
LINE
  8
BOTH
  6
CONTINUOUS
 10
67.000000
 20
177.900000
 11
66.800000
 21
177.800000
  0
LINE
  8
BOTH
  6
CONTINUOUS
 10
66.800000
 20
177.800000
 11
56.600000
 21
177.800000
  0
LINE
  8
BOTH
  6
CONTINUOUS
 10
56.600000
 20
177.800000
 11
56.400000
 21
177.900000
  0
LINE
  8
BOTH
  6
CONTINUOUS
 10
56.400000
 20
177.900000
 11
56.300000
 21
178.000000
  0
LINE
  8
BOTH
  6
CONTINUOUS
 10
56.300000
 20
178.000000
 11
56.200000
 21
178.200000
  0
LINE
  8
BOTH
  6
CONTINUOUS
 10
56.200000
 20
178.200000
 11
56.200000
 21
178.400000
  0
LINE
  8
BOTH
  6
CONTINUOUS
 10
56.200000
 20
178.400000
 11
56.300000
 21
178.600000
  0
LINE
  8
BOTH
  6
CONTINUOUS
 10
56.300000
 20
178.600000
 11
56.400000
 21
178.700000
  0
LINE
  8
BOTH
  6
CONTINUOUS
 10
56.400000
 20
178.700000
 11
56.600000
 21
178.800000
  0
LINE
  8
BOTH
  6
CONTINUOUS
 10
56.600000
 20
178.800000
 11
56.800000
 21
178.800000
  0
LINE
  8
BOTH
  6
CONTINUOUS
 10
56.600000
 20
181.800000
 11
66.800000
 21
181.800000
  0
LINE
  8
BOTH
  6
CONTINUOUS
 10
66.800000
 20
181.800000
 11
67.000000
 21
181.700000
  0
LINE
  8
BOTH
  6
CONTINUOUS
 10
67.000000
 20
181.700000
 11
67.100000
 21
181.600000
  0
LINE
  8
BOTH
  6
CONTINUOUS
 10
67.100000
 20
181.600000
 11
67.200000
 21
181.400000
  0
LINE
  8
BOTH
  6
CONTINUOUS
 10
67.200000
 20
181.400000
 11
67.200000
 21
181.200000
  0
LINE
  8
BOTH
  6
CONTINUOUS
 10
67.200000
 20
181.200000
 11
67.100000
 21
181.000000
  0
LINE
  8
BOTH
  6
CONTINUOUS
 10
67.100000
 20
181.000000
 11
67.000000
 21
180.900000
  0
LINE
  8
BOTH
  6
CONTINUOUS
 10
67.000000
 20
180.900000
 11
66.800000
 21
180.800000
  0
LINE
  8
BOTH
  6
CONTINUOUS
 10
66.800000
 20
180.800000
 11
56.600000
 21
180.800000
  0
LINE
  8
BOTH
  6
CONTINUOUS
 10
56.600000
 20
180.800000
 11
56.400000
 21
180.900000
  0
LINE
  8
BOTH
  6
CONTINUOUS
 10
56.400000
 20
180.900000
 11
56.300000
 21
181.000000
  0
LINE
  8
BOTH
  6
CONTINUOUS
 10
56.300000
 20
181.000000
 11
56.200000
 21
181.200000
  0
LINE
  8
BOTH
  6
CONTINUOUS
 10
56.200000
 20
181.200000
 11
56.200000
 21
181.400000
  0
LINE
  8
BOTH
  6
CONTINUOUS
 10
56.200000
 20
181.400000
 11
56.300000
 21
181.600000
  0
LINE
  8
BOTH
  6
CONTINUOUS
 10
56.300000
 20
181.600000
 11
56.400000
 21
181.700000
  0
LINE
  8
BOTH
  6
CONTINUOUS
 10
56.400000
 20
181.700000
 11
56.600000
 21
181.800000
  0
LINE
  8
BOTH
  6
CONTINUOUS
 10
56.600000
 20
181.800000
 11
56.800000
 21
181.800000
  0
LINE
  8
BOTH
  6
CONTINUOUS
 10
56.600000
 20
184.800000
 11
66.800000
 21
184.800000
  0
LINE
  8
BOTH
  6
CONTINUOUS
 10
66.800000
 20
184.800000
 11
67.000000
 21
184.700000
  0
LINE
  8
BOTH
  6
CONTINUOUS
 10
67.000000
 20
184.700000
 11
67.100000
 21
184.600000
  0
LINE
  8
BOTH
  6
CONTINUOUS
 10
67.100000
 20
184.600000
 11
67.200000
 21
184.400000
  0
LINE
  8
BOTH
  6
CONTINUOUS
 10
67.200000
 20
184.400000
 11
67.200000
 21
184.200000
  0
LINE
  8
BOTH
  6
CONTINUOUS
 10
67.200000
 20
184.200000
 11
67.100000
 21
184.000000
  0
LINE
  8
BOTH
  6
CONTINUOUS
 10
67.100000
 20
184.000000
 11
67.000000
 21
183.900000
  0
LINE
  8
BOTH
  6
CONTINUOUS
 10
67.000000
 20
183.900000
 11
66.800000
 21
183.800000
  0
LINE
  8
BOTH
  6
CONTINUOUS
 10
66.800000
 20
183.800000
 11
56.600000
 21
183.800000
  0
LINE
  8
BOTH
  6
CONTINUOUS
 10
56.600000
 20
183.800000
 11
56.400000
 21
183.900000
  0
LINE
  8
BOTH
  6
CONTINUOUS
 10
56.400000
 20
183.900000
 11
56.300000
 21
184.000000
  0
LINE
  8
BOTH
  6
CONTINUOUS
 10
56.300000
 20
184.000000
 11
56.200000
 21
184.200000
  0
LINE
  8
BOTH
  6
CONTINUOUS
 10
56.200000
 20
184.200000
 11
56.200000
 21
184.400000
  0
LINE
  8
BOTH
  6
CONTINUOUS
 10
56.200000
 20
184.400000
 11
56.300000
 21
184.600000
  0
LINE
  8
BOTH
  6
CONTINUOUS
 10
56.300000
 20
184.600000
 11
56.400000
 21
184.700000
  0
LINE
  8
BOTH
  6
CONTINUOUS
 10
56.400000
 20
184.700000
 11
56.600000
 21
184.800000
  0
LINE
  8
BOTH
  6
CONTINUOUS
 10
56.600000
 20
184.800000
 11
56.800000
 21
184.800000
  0
LINE
  8
BOTH
  6
CONTINUOUS
 10
56.600000
 20
187.800000
 11
66.800000
 21
187.800000
  0
LINE
  8
BOTH
  6
CONTINUOUS
 10
66.800000
 20
187.800000
 11
67.000000
 21
187.700000
  0
LINE
  8
BOTH
  6
CONTINUOUS
 10
67.000000
 20
187.700000
 11
67.100000
 21
187.600000
  0
LINE
  8
BOTH
  6
CONTINUOUS
 10
67.100000
 20
187.600000
 11
67.200000
 21
187.400000
  0
LINE
  8
BOTH
  6
CONTINUOUS
 10
67.200000
 20
187.400000
 11
67.200000
 21
187.200000
  0
LINE
  8
BOTH
  6
CONTINUOUS
 10
67.200000
 20
187.200000
 11
67.100000
 21
187.000000
  0
LINE
  8
BOTH
  6
CONTINUOUS
 10
67.100000
 20
187.000000
 11
67.000000
 21
186.900000
  0
LINE
  8
BOTH
  6
CONTINUOUS
 10
67.000000
 20
186.900000
 11
66.800000
 21
186.800000
  0
LINE
  8
BOTH
  6
CONTINUOUS
 10
66.800000
 20
186.800000
 11
56.600000
 21
186.800000
  0
LINE
  8
BOTH
  6
CONTINUOUS
 10
56.600000
 20
186.800000
 11
56.400000
 21
186.900000
  0
LINE
  8
BOTH
  6
CONTINUOUS
 10
56.400000
 20
186.900000
 11
56.300000
 21
187.000000
  0
LINE
  8
BOTH
  6
CONTINUOUS
 10
56.300000
 20
187.000000
 11
56.200000
 21
187.200000
  0
LINE
  8
BOTH
  6
CONTINUOUS
 10
56.200000
 20
187.200000
 11
56.200000
 21
187.400000
  0
LINE
  8
BOTH
  6
CONTINUOUS
 10
56.200000
 20
187.400000
 11
56.300000
 21
187.600000
  0
LINE
  8
BOTH
  6
CONTINUOUS
 10
56.300000
 20
187.600000
 11
56.400000
 21
187.700000
  0
LINE
  8
BOTH
  6
CONTINUOUS
 10
56.400000
 20
187.700000
 11
56.600000
 21
187.800000
  0
LINE
  8
BOTH
  6
CONTINUOUS
 10
56.600000
 20
187.800000
 11
56.800000
 21
187.800000
  0
LINE
  8
BOTH
  6
CONTINUOUS
 10
24.300000
 20
181.800000
 11
24.300000
 21
174.400000
  0
LINE
  8
BOTH
  6
CONTINUOUS
 10
24.300000
 20
174.400000
 11
23.100000
 21
174.400000
  0
LINE
  8
BOTH
  6
CONTINUOUS
 10
23.100000
 20
174.400000
 11
19.700000
 21
175.600000
  0
LINE
  8
BOTH
  6
CONTINUOUS
 10
19.700000
 20
175.600000
 11
16.500000
 21
175.600000
  0
LINE
  8
BOTH
  6
CONTINUOUS
 10
16.500000
 20
175.600000
 11
16.500000
 21
180.600000
  0
LINE
  8
BOTH
  6
CONTINUOUS
 10
16.500000
 20
180.600000
 11
19.800000
 21
180.600000
  0
LINE
  8
BOTH
  6
CONTINUOUS
 10
19.800000
 20
180.600000
 11
23.100000
 21
181.800000
  0
LINE
  8
BOTH
  6
CONTINUOUS
 10
23.100000
 20
181.800000
 11
24.300000
 21
181.800000
  0
LINE
  8
BOTH
  6
CONTINUOUS
 10
51.300000
 20
181.800000
 11
51.300000
 21
174.400000
  0
LINE
  8
BOTH
  6
CONTINUOUS
 10
51.300000
 20
174.400000
 11
50.100000
 21
174.400000
  0
LINE
  8
BOTH
  6
CONTINUOUS
 10
50.100000
 20
174.400000
 11
46.700000
 21
175.500000
  0
LINE
  8
BOTH
  6
CONTINUOUS
 10
46.700000
 20
175.500000
 11
43.500000
 21
175.800000
  0
LINE
  8
BOTH
  6
CONTINUOUS
 10
43.500000
 20
175.800000
 11
43.500000
 21
180.400000
  0
LINE
  8
BOTH
  6
CONTINUOUS
 10
43.500000
 20
180.400000
 11
46.700000
 21
180.700000
  0
LINE
  8
BOTH
  6
CONTINUOUS
 10
46.700000
 20
180.700000
 11
50.100000
 21
181.800000
  0
LINE
  8
BOTH
  6
CONTINUOUS
 10
50.100000
 20
181.800000
 11
51.300000
 21
181.800000
  0
LINE
  8
BOTH
  6
CONTINUOUS
 10
14.700000
 20
203.700000
 11
14.800000
 21
203.800000
  0
LINE
  8
BOTH
  6
CONTINUOUS
 10
14.800000
 20
203.800000
 11
14.900000
 21
204.000000
  0
LINE
  8
BOTH
  6
CONTINUOUS
 10
14.900000
 20
204.000000
 11
14.900000
 21
204.200000
  0
LINE
  8
BOTH
  6
CONTINUOUS
 10
14.900000
 20
204.200000
 11
14.800000
 21
204.400000
  0
LINE
  8
BOTH
  6
CONTINUOUS
 10
14.800000
 20
204.400000
 11
14.700000
 21
204.500000
  0
LINE
  8
BOTH
  6
CONTINUOUS
 10
14.700000
 20
204.500000
 11
14.700000
 21
207.600000
  0
LINE
  8
BOTH
  6
CONTINUOUS
 10
14.700000
 20
207.600000
 11
14.800000
 21
207.900000
  0
LINE
  8
BOTH
  6
CONTINUOUS
 10
14.800000
 20
207.900000
 11
15.000000
 21
208.100000
  0
LINE
  8
BOTH
  6
CONTINUOUS
 10
15.000000
 20
208.100000
 11
15.300000
 21
208.200000
  0
LINE
  8
BOTH
  6
CONTINUOUS
 10
15.300000
 20
208.200000
 11
75.700000
 21
208.200000
  0
LINE
  8
BOTH
  6
CONTINUOUS
 10
75.700000
 20
208.200000
 11
76.000000
 21
208.100000
  0
LINE
  8
BOTH
  6
CONTINUOUS
 10
76.000000
 20
208.100000
 11
76.200000
 21
207.900000
  0
LINE
  8
BOTH
  6
CONTINUOUS
 10
76.200000
 20
207.900000
 11
76.300000
 21
207.600000
  0
LINE
  8
BOTH
  6
CONTINUOUS
 10
76.300000
 20
207.600000
 11
76.300000
 21
204.500000
  0
LINE
  8
BOTH
  6
CONTINUOUS
 10
76.300000
 20
204.500000
 11
76.200000
 21
204.400000
  0
LINE
  8
BOTH
  6
CONTINUOUS
 10
76.200000
 20
204.400000
 11
76.100000
 21
204.200000
  0
LINE
  8
BOTH
  6
CONTINUOUS
 10
76.100000
 20
204.200000
 11
76.100000
 21
204.000000
  0
LINE
  8
BOTH
  6
CONTINUOUS
 10
76.100000
 20
204.000000
 11
76.200000
 21
203.800000
  0
LINE
  8
BOTH
  6
CONTINUOUS
 10
76.200000
 20
203.800000
 11
76.300000
 21
203.700000
  0
LINE
  8
BOTH
  6
CONTINUOUS
 10
76.300000
 20
203.700000
 11
76.300000
 21
202.700000
  0
LINE
  8
BOTH
  6
CONTINUOUS
 10
76.300000
 20
202.700000
 11
76.200000
 21
202.600000
  0
LINE
  8
BOTH
  6
CONTINUOUS
 10
76.200000
 20
202.600000
 11
76.100000
 21
202.400000
  0
LINE
  8
BOTH
  6
CONTINUOUS
 10
76.100000
 20
202.400000
 11
76.100000
 21
202.200000
  0
LINE
  8
BOTH
  6
CONTINUOUS
 10
76.100000
 20
202.200000
 11
76.200000
 21
202.000000
  0
LINE
  8
BOTH
  6
CONTINUOUS
 10
76.200000
 20
202.000000
 11
76.300000
 21
201.900000
  0
LINE
  8
BOTH
  6
CONTINUOUS
 10
76.300000
 20
201.900000
 11
76.300000
 21
198.800000
  0
LINE
  8
BOTH
  6
CONTINUOUS
 10
76.300000
 20
198.800000
 11
76.200000
 21
198.500000
  0
LINE
  8
BOTH
  6
CONTINUOUS
 10
76.200000
 20
198.500000
 11
76.000000
 21
198.300000
  0
LINE
  8
BOTH
  6
CONTINUOUS
 10
76.000000
 20
198.300000
 11
75.700000
 21
198.200000
  0
LINE
  8
BOTH
  6
CONTINUOUS
 10
75.700000
 20
198.200000
 11
47.000000
 21
198.200000
  0
LINE
  8
BOTH
  6
CONTINUOUS
 10
47.000000
 20
198.200000
 11
46.800000
 21
198.400000
  0
LINE
  8
BOTH
  6
CONTINUOUS
 10
46.800000
 20
198.400000
 11
46.400000
 21
198.400000
  0
LINE
  8
BOTH
  6
CONTINUOUS
 10
46.400000
 20
198.400000
 11
46.200000
 21
198.200000
  0
LINE
  8
BOTH
  6
CONTINUOUS
 10
46.200000
 20
198.200000
 11
45.200000
 21
198.200000
  0
LINE
  8
BOTH
  6
CONTINUOUS
 10
45.200000
 20
198.200000
 11
45.000000
 21
198.400000
  0
LINE
  8
BOTH
  6
CONTINUOUS
 10
45.000000
 20
198.400000
 11
44.600000
 21
198.400000
  0
LINE
  8
BOTH
  6
CONTINUOUS
 10
44.600000
 20
198.400000
 11
44.400000
 21
198.200000
  0
LINE
  8
BOTH
  6
CONTINUOUS
 10
44.400000
 20
198.200000
 11
15.300000
 21
198.200000
  0
LINE
  8
BOTH
  6
CONTINUOUS
 10
15.300000
 20
198.200000
 11
15.000000
 21
198.300000
  0
LINE
  8
BOTH
  6
CONTINUOUS
 10
15.000000
 20
198.300000
 11
14.800000
 21
198.500000
  0
LINE
  8
BOTH
  6
CONTINUOUS
 10
14.800000
 20
198.500000
 11
14.700000
 21
198.800000
  0
LINE
  8
BOTH
  6
CONTINUOUS
 10
14.700000
 20
198.800000
 11
14.700000
 21
201.900000
  0
LINE
  8
BOTH
  6
CONTINUOUS
 10
14.700000
 20
201.900000
 11
14.800000
 21
202.000000
  0
LINE
  8
BOTH
  6
CONTINUOUS
 10
14.800000
 20
202.000000
 11
14.900000
 21
202.200000
  0
LINE
  8
BOTH
  6
CONTINUOUS
 10
14.900000
 20
202.200000
 11
14.900000
 21
202.400000
  0
LINE
  8
BOTH
  6
CONTINUOUS
 10
14.900000
 20
202.400000
 11
14.800000
 21
202.600000
  0
LINE
  8
BOTH
  6
CONTINUOUS
 10
14.800000
 20
202.600000
 11
14.700000
 21
202.700000
  0
LINE
  8
BOTH
  6
CONTINUOUS
 10
14.700000
 20
202.700000
 11
14.700000
 21
203.700000
  0
POLYLINE
  8
BOTH
 66
     1
 70
     1
 40
0.000000
 41
0.000000
  6
CONTINUOUS
  0
VERTEX
  8
BOTH
 10
72.200000
 20
155.000000
  0
VERTEX
  8
BOTH
 10
72.200000
 20
159.000000
  0
VERTEX
  8
BOTH
 10
68.300000
 20
159.000000
  0
VERTEX
  8
BOTH
 10
68.300000
 20
155.000000
  0
SEQEND
  0
POLYLINE
  8
BOTH
 66
     1
 70
     1
 40
0.000000
 41
0.000000
  6
CONTINUOUS
  0
VERTEX
  8
BOTH
 10
82.200000
 20
155.700000
  0
VERTEX
  8
BOTH
 10
82.200000
 20
159.700000
  0
VERTEX
  8
BOTH
 10
78.300000
 20
159.700000
  0
VERTEX
  8
BOTH
 10
78.300000
 20
155.700000
  0
SEQEND
  0
POLYLINE
  8
BOTH
 66
     1
 70
     1
 40
0.000000
 41
0.000000
  6
CONTINUOUS
  0
VERTEX
  8
BOTH
 10
82.200000
 20
160.500000
  0
VERTEX
  8
BOTH
 10
82.200000
 20
164.500000
  0
VERTEX
  8
BOTH
 10
78.300000
 20
164.500000
  0
VERTEX
  8
BOTH
 10
78.300000
 20
160.500000
  0
SEQEND
  0
POLYLINE
  8
BOTH
 66
     1
 70
     1
 40
0.000000
 41
0.000000
  6
CONTINUOUS
  0
VERTEX
  8
BOTH
 10
72.200000
 20
159.800000
  0
VERTEX
  8
BOTH
 10
72.200000
 20
163.800000
  0
VERTEX
  8
BOTH
 10
68.300000
 20
163.800000
  0
VERTEX
  8
BOTH
 10
68.300000
 20
159.800000
  0
SEQEND
  0
POLYLINE
  8
BOTH
 66
     1
 70
     1
 40
0.000000
 41
0.000000
  6
CONTINUOUS
  0
VERTEX
  8
BOTH
 10
68.900000
 20
169.100000
  0
VERTEX
  8
BOTH
 10
68.900000
 20
173.100000
  0
VERTEX
  8
BOTH
 10
65.000000
 20
173.100000
  0
VERTEX
  8
BOTH
 10
65.000000
 20
169.100000
  0
SEQEND
  0
POLYLINE
  8
BOTH
 66
     1
 70
     1
 40
0.000000
 41
0.000000
  6
CONTINUOUS
  0
VERTEX
  8
BOTH
 10
73.600000
 20
169.100000
  0
VERTEX
  8
BOTH
 10
73.600000
 20
173.100000
  0
VERTEX
  8
BOTH
 10
69.700000
 20
173.100000
  0
VERTEX
  8
BOTH
 10
69.700000
 20
169.100000
  0
SEQEND
  0
POLYLINE
  8
BOTH
 66
     1
 70
     1
 40
0.000000
 41
0.000000
  6
CONTINUOUS
  0
VERTEX
  8
BOTH
 10
73.700000
 20
190.700000
  0
VERTEX
  8
BOTH
 10
73.700000
 20
194.700000
  0
VERTEX
  8
BOTH
 10
69.800000
 20
194.700000
  0
VERTEX
  8
BOTH
 10
69.800000
 20
190.700000
  0
SEQEND
  0
POLYLINE
  8
BOTH
 66
     1
 70
     1
 40
0.000000
 41
0.000000
  6
CONTINUOUS
  0
VERTEX
  8
BOTH
 10
68.900000
 20
190.700000
  0
VERTEX
  8
BOTH
 10
68.900000
 20
194.700000
  0
VERTEX
  8
BOTH
 10
65.000000
 20
194.700000
  0
VERTEX
  8
BOTH
 10
65.000000
 20
190.700000
  0
SEQEND
  0
POLYLINE
  8
BOTH
 66
     1
 70
     1
 40
0.000000
 41
0.000000
  6
CONTINUOUS
  0
VERTEX
  8
BOTH
 10
80.200000
 20
198.800000
  0
VERTEX
  8
BOTH
 10
80.200000
 20
202.800000
  0
VERTEX
  8
BOTH
 10
76.300000
 20
202.800000
  0
VERTEX
  8
BOTH
 10
76.300000
 20
198.800000
  0
SEQEND
  0
POLYLINE
  8
BOTH
 66
     1
 70
     1
 40
0.000000
 41
0.000000
  6
CONTINUOUS
  0
VERTEX
  8
BOTH
 10
80.200000
 20
203.600000
  0
VERTEX
  8
BOTH
 10
80.200000
 20
207.600000
  0
VERTEX
  8
BOTH
 10
76.300000
 20
207.600000
  0
VERTEX
  8
BOTH
 10
76.300000
 20
203.600000
  0
SEQEND
  0
POLYLINE
  8
BOTH
 66
     1
 70
     1
 40
0.000000
 41
0.000000
  6
CONTINUOUS
  0
VERTEX
  8
BOTH
 10
14.700000
 20
203.600000
  0
VERTEX
  8
BOTH
 10
14.700000
 20
207.600000
  0
VERTEX
  8
BOTH
 10
10.800000
 20
207.600000
  0
VERTEX
  8
BOTH
 10
10.800000
 20
203.600000
  0
SEQEND
  0
POLYLINE
  8
BOTH
 66
     1
 70
     1
 40
0.000000
 41
0.000000
  6
CONTINUOUS
  0
VERTEX
  8
BOTH
 10
14.700000
 20
198.800000
  0
VERTEX
  8
BOTH
 10
14.700000
 20
202.800000
  0
VERTEX
  8
BOTH
 10
10.800000
 20
202.800000
  0
VERTEX
  8
BOTH
 10
10.800000
 20
198.800000
  0
SEQEND
  0
POLYLINE
  8
BOTH
 66
     1
 70
     1
 40
0.000000
 41
0.000000
  6
CONTINUOUS
  0
VERTEX
  8
BOTH
 10
50.000000
 20
194.200000
  0
VERTEX
  8
BOTH
 10
50.000000
 20
198.200000
  0
VERTEX
  8
BOTH
 10
46.100000
 20
198.200000
  0
VERTEX
  8
BOTH
 10
46.100000
 20
194.200000
  0
SEQEND
  0
POLYLINE
  8
BOTH
 66
     1
 70
     1
 40
0.000000
 41
0.000000
  6
CONTINUOUS
  0
VERTEX
  8
BOTH
 10
45.300000
 20
194.200000
  0
VERTEX
  8
BOTH
 10
45.300000
 20
198.200000
  0
VERTEX
  8
BOTH
 10
41.400000
 20
198.200000
  0
VERTEX
  8
BOTH
 10
41.400000
 20
194.200000
  0
SEQEND
  0
POLYLINE
  8
BOTH
 66
     1
 70
     1
 40
0.000000
 41
0.000000
  6
CONTINUOUS
  0
VERTEX
  8
BOTH
 10
14.900000
 20
171.800000
  0
VERTEX
  8
BOTH
 10
14.900000
 20
175.800000
  0
VERTEX
  8
BOTH
 10
11.000000
 20
175.800000
  0
VERTEX
  8
BOTH
 10
11.000000
 20
171.800000
  0
SEQEND
  0
POLYLINE
  8
BOTH
 66
     1
 70
     1
 40
0.000000
 41
0.000000
  6
CONTINUOUS
  0
VERTEX
  8
BOTH
 10
14.900000
 20
176.600000
  0
VERTEX
  8
BOTH
 10
14.900000
 20
180.600000
  0
VERTEX
  8
BOTH
 10
11.000000
 20
180.600000
  0
VERTEX
  8
BOTH
 10
11.000000
 20
176.600000
  0
SEQEND
  0
POLYLINE
  8
BOTH
 66
     1
 70
     1
 40
0.000000
 41
0.000000
  6
CONTINUOUS
  0
VERTEX
  8
BOTH
 10
14.700000
 20
155.700000
  0
VERTEX
  8
BOTH
 10
14.700000
 20
159.700000
  0
VERTEX
  8
BOTH
 10
10.800000
 20
159.700000
  0
VERTEX
  8
BOTH
 10
10.800000
 20
155.700000
  0
SEQEND
  0
POLYLINE
  8
BOTH
 66
     1
 70
     1
 40
0.000000
 41
0.000000
  6
CONTINUOUS
  0
VERTEX
  8
BOTH
 10
14.700000
 20
160.500000
  0
VERTEX
  8
BOTH
 10
14.700000
 20
164.500000
  0
VERTEX
  8
BOTH
 10
10.800000
 20
164.500000
  0
VERTEX
  8
BOTH
 10
10.800000
 20
160.500000
  0
SEQEND
  0
POLYLINE
  8
BOTH
 66
     1
 70
     1
 40
0.000000
 41
0.000000
  6
CONTINUOUS
  0
VERTEX
  8
BOTH
 10
14.700000
 20
115.300000
  0
VERTEX
  8
BOTH
 10
14.700000
 20
119.300000
  0
VERTEX
  8
BOTH
 10
10.800000
 20
119.300000
  0
VERTEX
  8
BOTH
 10
10.800000
 20
115.300000
  0
SEQEND
  0
POLYLINE
  8
BOTH
 66
     1
 70
     1
 40
0.000000
 41
0.000000
  6
CONTINUOUS
  0
VERTEX
  8
BOTH
 10
14.700000
 20
120.100000
  0
VERTEX
  8
BOTH
 10
14.700000
 20
124.100000
  0
VERTEX
  8
BOTH
 10
10.800000
 20
124.100000
  0
VERTEX
  8
BOTH
 10
10.800000
 20
120.100000
  0
SEQEND
  0
POLYLINE
  8
BOTH
 66
     1
 70
     1
 40
0.000000
 41
0.000000
  6
CONTINUOUS
  0
VERTEX
  8
BOTH
 10
82.200000
 20
116.300000
  0
VERTEX
  8
BOTH
 10
82.200000
 20
120.300000
  0
VERTEX
  8
BOTH
 10
78.300000
 20
120.300000
  0
VERTEX
  8
BOTH
 10
78.300000
 20
116.300000
  0
SEQEND
  0
POLYLINE
  8
BOTH
 66
     1
 70
     1
 40
0.000000
 41
0.000000
  6
CONTINUOUS
  0
VERTEX
  8
BOTH
 10
82.200000
 20
121.100000
  0
VERTEX
  8
BOTH
 10
82.200000
 20
125.100000
  0
VERTEX
  8
BOTH
 10
78.300000
 20
125.100000
  0
VERTEX
  8
BOTH
 10
78.300000
 20
121.100000
  0
SEQEND
  0
POLYLINE
  8
BOTH
 66
     1
 70
     1
 40
0.000000
 41
0.000000
  6
CONTINUOUS
  0
VERTEX
  8
BOTH
 10
53.600000
 20
136.200000
  0
VERTEX
  8
BOTH
 10
53.600000
 20
140.200000
  0
VERTEX
  8
BOTH
 10
49.700000
 20
140.200000
  0
VERTEX
  8
BOTH
 10
49.700000
 20
136.200000
  0
SEQEND
  0
POLYLINE
  8
BOTH
 66
     1
 70
     1
 40
0.000000
 41
0.000000
  6
CONTINUOUS
  0
VERTEX
  8
BOTH
 10
53.600000
 20
141.000000
  0
VERTEX
  8
BOTH
 10
53.600000
 20
145.000000
  0
VERTEX
  8
BOTH
 10
49.700000
 20
145.000000
  0
VERTEX
  8
BOTH
 10
49.700000
 20
141.000000
  0
SEQEND
  0
LINE
  8
BOTH
  6
CONTINUOUS
 10
66.100000
 20
163.400000
 11
68.300000
 21
161.200000
  0
LINE
  8
BOTH
  6
CONTINUOUS
 10
68.300000
 20
161.200000
 11
68.300000
 21
160.700000
  0
LINE
  8
BOTH
  6
CONTINUOUS
 10
68.300000
 20
160.700000
 11
68.100000
 21
160.500000
  0
LINE
  8
BOTH
  6
CONTINUOUS
 10
68.100000
 20
160.500000
 11
68.100000
 21
160.200000
  0
LINE
  8
BOTH
  6
CONTINUOUS
 10
68.100000
 20
160.200000
 11
68.300000
 21
160.000000
  0
LINE
  8
BOTH
  6
CONTINUOUS
 10
68.300000
 20
160.000000
 11
68.300000
 21
159.800000
  0
LINE
  8
BOTH
  6
CONTINUOUS
 10
68.300000
 20
159.800000
 11
72.200000
 21
159.800000
  0
LINE
  8
BOTH
  6
CONTINUOUS
 10
72.200000
 20
159.800000
 11
72.200000
 21
159.000000
  0
LINE
  8
BOTH
  6
CONTINUOUS
 10
72.200000
 20
159.000000
 11
68.300000
 21
159.000000
  0
LINE
  8
BOTH
  6
CONTINUOUS
 10
68.300000
 20
159.000000
 11
68.300000
 21
158.800000
  0
LINE
  8
BOTH
  6
CONTINUOUS
 10
68.300000
 20
158.800000
 11
68.100000
 21
158.600000
  0
LINE
  8
BOTH
  6
CONTINUOUS
 10
68.100000
 20
158.600000
 11
68.100000
 21
158.300000
  0
LINE
  8
BOTH
  6
CONTINUOUS
 10
68.100000
 20
158.300000
 11
68.300000
 21
158.100000
  0
LINE
  8
BOTH
  6
CONTINUOUS
 10
68.300000
 20
158.100000
 11
68.300000
 21
157.600000
  0
LINE
  8
BOTH
  6
CONTINUOUS
 10
68.300000
 20
157.600000
 11
66.100000
 21
155.400000
  0
LINE
  8
BOTH
  6
CONTINUOUS
 10
66.100000
 20
155.400000
 11
33.200000
 21
155.400000
  0
LINE
  8
BOTH
  6
CONTINUOUS
 10
33.200000
 20
155.400000
 11
33.000000
 21
155.600000
  0
LINE
  8
BOTH
  6
CONTINUOUS
 10
33.000000
 20
155.600000
 11
23.800000
 21
155.600000
  0
LINE
  8
BOTH
  6
CONTINUOUS
 10
23.800000
 20
155.600000
 11
22.300000
 21
156.400000
  0
LINE
  8
BOTH
  6
CONTINUOUS
 10
22.300000
 20
156.400000
 11
23.800000
 21
157.200000
  0
LINE
  8
BOTH
  6
CONTINUOUS
 10
23.800000
 20
157.200000
 11
31.700000
 21
157.200000
  0
LINE
  8
BOTH
  6
CONTINUOUS
 10
31.700000
 20
157.200000
 11
32.200000
 21
157.200000
  0
LINE
  8
BOTH
  6
CONTINUOUS
 10
32.200000
 20
157.200000
 11
32.400000
 21
157.300000
  0
LINE
  8
BOTH
  6
CONTINUOUS
 10
32.400000
 20
157.300000
 11
32.400000
 21
157.500000
  0
LINE
  8
BOTH
  6
CONTINUOUS
 10
32.400000
 20
157.500000
 11
32.200000
 21
157.600000
  0
LINE
  8
BOTH
  6
CONTINUOUS
 10
32.200000
 20
157.600000
 11
23.800000
 21
157.600000
  0
LINE
  8
BOTH
  6
CONTINUOUS
 10
23.800000
 20
157.600000
 11
22.400000
 21
158.400000
  0
LINE
  8
BOTH
  6
CONTINUOUS
 10
22.400000
 20
158.400000
 11
23.800000
 21
159.200000
  0
LINE
  8
BOTH
  6
CONTINUOUS
 10
23.800000
 20
159.200000
 11
32.200000
 21
159.200000
  0
LINE
  8
BOTH
  6
CONTINUOUS
 10
32.200000
 20
159.200000
 11
32.400000
 21
159.300000
  0
LINE
  8
BOTH
  6
CONTINUOUS
 10
32.400000
 20
159.300000
 11
32.400000
 21
159.500000
  0
LINE
  8
BOTH
  6
CONTINUOUS
 10
32.400000
 20
159.500000
 11
32.200000
 21
159.600000
  0
LINE
  8
BOTH
  6
CONTINUOUS
 10
32.200000
 20
159.600000
 11
23.800000
 21
159.600000
  0
LINE
  8
BOTH
  6
CONTINUOUS
 10
23.800000
 20
159.600000
 11
22.400000
 21
160.400000
  0
LINE
  8
BOTH
  6
CONTINUOUS
 10
22.400000
 20
160.400000
 11
23.800000
 21
161.200000
  0
LINE
  8
BOTH
  6
CONTINUOUS
 10
23.800000
 20
161.200000
 11
32.200000
 21
161.200000
  0
LINE
  8
BOTH
  6
CONTINUOUS
 10
32.200000
 20
161.200000
 11
32.400000
 21
161.300000
  0
LINE
  8
BOTH
  6
CONTINUOUS
 10
32.400000
 20
161.300000
 11
32.400000
 21
161.500000
  0
LINE
  8
BOTH
  6
CONTINUOUS
 10
32.400000
 20
161.500000
 11
32.200000
 21
161.600000
  0
LINE
  8
BOTH
  6
CONTINUOUS
 10
32.200000
 20
161.600000
 11
23.800000
 21
161.600000
  0
LINE
  8
BOTH
  6
CONTINUOUS
 10
23.800000
 20
161.600000
 11
22.400000
 21
162.400000
  0
LINE
  8
BOTH
  6
CONTINUOUS
 10
22.400000
 20
162.400000
 11
23.800000
 21
163.200000
  0
LINE
  8
BOTH
  6
CONTINUOUS
 10
23.800000
 20
163.200000
 11
30.900000
 21
163.200000
  0
LINE
  8
BOTH
  6
CONTINUOUS
 10
30.900000
 20
163.200000
 11
31.100000
 21
163.200000
  0
LINE
  8
BOTH
  6
CONTINUOUS
 10
31.100000
 20
163.200000
 11
32.300000
 21
163.200000
  0
LINE
  8
BOTH
  6
CONTINUOUS
 10
32.300000
 20
163.200000
 11
32.700000
 21
163.200000
  0
LINE
  8
BOTH
  6
CONTINUOUS
 10
32.700000
 20
163.200000
 11
32.900000
 21
163.200000
  0
LINE
  8
BOTH
  6
CONTINUOUS
 10
32.900000
 20
163.200000
 11
33.200000
 21
163.400000
  0
LINE
  8
BOTH
  6
CONTINUOUS
 10
33.200000
 20
163.400000
 11
66.100000
 21
163.400000
  0
LINE
  8
BOTTOM
  6
CONTINUOUS
 10
16.200000
 20
164.800000
 11
16.200000
 21
163.400000
  0
LINE
  8
BOTTOM
  6
CONTINUOUS
 10
16.200000
 20
163.400000
 11
17.600000
 21
163.400000
  0
LINE
  8
BOTTOM
  6
CONTINUOUS
 10
17.600000
 20
163.400000
 11
17.600000
 21
164.800000
  0
LINE
  8
BOTTOM
  6
CONTINUOUS
 10
17.600000
 20
164.800000
 11
16.200000
 21
164.800000
  0
LINE
  8
BOTTOM
  6
CONTINUOUS
 10
75.400000
 20
164.800000
 11
75.400000
 21
163.400000
  0
LINE
  8
BOTTOM
  6
CONTINUOUS
 10
75.400000
 20
163.400000
 11
76.800000
 21
163.400000
  0
LINE
  8
BOTTOM
  6
CONTINUOUS
 10
76.800000
 20
163.400000
 11
76.800000
 21
164.800000
  0
LINE
  8
BOTTOM
  6
CONTINUOUS
 10
76.800000
 20
164.800000
 11
75.400000
 21
164.800000
  0
LINE
  8
BOTTOM
  6
CONTINUOUS
 10
45.800000
 20
149.600000
 11
45.800000
 21
148.200000
  0
LINE
  8
BOTTOM
  6
CONTINUOUS
 10
45.800000
 20
148.200000
 11
47.200000
 21
148.200000
  0
LINE
  8
BOTTOM
  6
CONTINUOUS
 10
47.200000
 20
148.200000
 11
47.200000
 21
149.600000
  0
LINE
  8
BOTTOM
  6
CONTINUOUS
 10
47.200000
 20
149.600000
 11
45.800000
 21
149.600000
  0
LINE
  8
BOTTOM
  6
CONTINUOUS
 10
29.500000
 20
132.200000
 11
43.300000
 21
132.200000
  0
LINE
  8
BOTTOM
  6
CONTINUOUS
 10
43.300000
 20
132.200000
 11
43.300000
 21
131.800000
  0
LINE
  8
BOTTOM
  6
CONTINUOUS
 10
43.300000
 20
131.800000
 11
29.500000
 21
131.800000
  0
LINE
  8
BOTTOM
  6
CONTINUOUS
 10
29.500000
 20
131.800000
 11
29.500000
 21
131.400000
  0
LINE
  8
BOTTOM
  6
CONTINUOUS
 10
29.500000
 20
131.400000
 11
43.300000
 21
131.400000
  0
LINE
  8
BOTTOM
  6
CONTINUOUS
 10
43.300000
 20
131.400000
 11
43.300000
 21
131.000000
  0
LINE
  8
BOTTOM
  6
CONTINUOUS
 10
43.300000
 20
131.000000
 11
29.500000
 21
131.000000
  0
LINE
  8
BOTTOM
  6
CONTINUOUS
 10
29.500000
 20
131.000000
 11
29.500000
 21
130.600000
  0
LINE
  8
BOTTOM
  6
CONTINUOUS
 10
29.500000
 20
130.600000
 11
63.500000
 21
130.600000
  0
LINE
  8
BOTTOM
  6
CONTINUOUS
 10
63.500000
 20
130.600000
 11
63.500000
 21
131.000000
  0
LINE
  8
BOTTOM
  6
CONTINUOUS
 10
63.500000
 20
131.000000
 11
49.700000
 21
131.000000
  0
LINE
  8
BOTTOM
  6
CONTINUOUS
 10
49.700000
 20
131.000000
 11
49.700000
 21
131.400000
  0
LINE
  8
BOTTOM
  6
CONTINUOUS
 10
49.700000
 20
131.400000
 11
63.500000
 21
131.400000
  0
LINE
  8
BOTTOM
  6
CONTINUOUS
 10
63.500000
 20
131.400000
 11
63.500000
 21
131.800000
  0
LINE
  8
BOTTOM
  6
CONTINUOUS
 10
63.500000
 20
131.800000
 11
49.700000
 21
131.800000
  0
LINE
  8
BOTTOM
  6
CONTINUOUS
 10
49.700000
 20
131.800000
 11
49.700000
 21
132.200000
  0
LINE
  8
BOTTOM
  6
CONTINUOUS
 10
49.700000
 20
132.200000
 11
63.500000
 21
132.200000
  0
LINE
  8
BOTTOM
  6
CONTINUOUS
 10
63.500000
 20
132.200000
 11
71.300000
 21
132.200000
  0
LINE
  8
BOTTOM
  6
CONTINUOUS
 10
71.300000
 20
132.200000
 11
71.300000
 21
116.600000
  0
LINE
  8
BOTTOM
  6
CONTINUOUS
 10
71.300000
 20
116.600000
 11
49.700000
 21
116.600000
  0
LINE
  8
BOTTOM
  6
CONTINUOUS
 10
49.700000
 20
116.600000
 11
49.700000
 21
117.000000
  0
LINE
  8
BOTTOM
  6
CONTINUOUS
 10
49.700000
 20
117.000000
 11
63.500000
 21
117.000000
  0
LINE
  8
BOTTOM
  6
CONTINUOUS
 10
63.500000
 20
117.000000
 11
63.500000
 21
117.400000
  0
LINE
  8
BOTTOM
  6
CONTINUOUS
 10
63.500000
 20
117.400000
 11
49.700000
 21
117.400000
  0
LINE
  8
BOTTOM
  6
CONTINUOUS
 10
49.700000
 20
117.400000
 11
49.700000
 21
117.800000
  0
LINE
  8
BOTTOM
  6
CONTINUOUS
 10
49.700000
 20
117.800000
 11
63.500000
 21
117.800000
  0
LINE
  8
BOTTOM
  6
CONTINUOUS
 10
63.500000
 20
117.800000
 11
63.500000
 21
118.200000
  0
LINE
  8
BOTTOM
  6
CONTINUOUS
 10
63.500000
 20
118.200000
 11
29.500000
 21
118.200000
  0
LINE
  8
BOTTOM
  6
CONTINUOUS
 10
29.500000
 20
118.200000
 11
29.500000
 21
117.800000
  0
LINE
  8
BOTTOM
  6
CONTINUOUS
 10
29.500000
 20
117.800000
 11
43.300000
 21
117.800000
  0
LINE
  8
BOTTOM
  6
CONTINUOUS
 10
43.300000
 20
117.800000
 11
43.300000
 21
117.400000
  0
LINE
  8
BOTTOM
  6
CONTINUOUS
 10
43.300000
 20
117.400000
 11
29.500000
 21
117.400000
  0
LINE
  8
BOTTOM
  6
CONTINUOUS
 10
29.500000
 20
117.400000
 11
29.500000
 21
117.000000
  0
LINE
  8
BOTTOM
  6
CONTINUOUS
 10
29.500000
 20
117.000000
 11
43.300000
 21
117.000000
  0
LINE
  8
BOTTOM
  6
CONTINUOUS
 10
43.300000
 20
117.000000
 11
43.300000
 21
116.600000
  0
LINE
  8
BOTTOM
  6
CONTINUOUS
 10
43.300000
 20
116.600000
 11
29.500000
 21
116.600000
  0
LINE
  8
BOTTOM
  6
CONTINUOUS
 10
29.500000
 20
116.600000
 11
28.600000
 21
116.600000
  0
LINE
  8
BOTTOM
  6
CONTINUOUS
 10
28.600000
 20
116.600000
 11
21.700000
 21
116.600000
  0
LINE
  8
BOTTOM
  6
CONTINUOUS
 10
21.700000
 20
116.600000
 11
21.700000
 21
132.200000
  0
LINE
  8
BOTTOM
  6
CONTINUOUS
 10
21.700000
 20
132.200000
 11
24.400000
 21
132.200000
  0
LINE
  8
BOTTOM
  6
CONTINUOUS
 10
24.400000
 20
132.200000
 11
26.100000
 21
132.200000
  0
LINE
  8
BOTTOM
  6
CONTINUOUS
 10
26.100000
 20
132.200000
 11
29.500000
 21
132.200000
  0
POLYLINE
  8
BOTTOM
 66
     1
 70
     1
 40
0.000000
 41
0.000000
  6
CONTINUOUS
  0
VERTEX
  8
BOTTOM
 10
63.500000
 20
120.200000
  0
VERTEX
  8
BOTTOM
 10
63.500000
 20
120.600000
  0
VERTEX
  8
BOTTOM
 10
52.500000
 20
120.600000
  0
VERTEX
  8
BOTTOM
 10
52.500000
 20
120.200000
  0
SEQEND
  0
POLYLINE
  8
BOTTOM
 66
     1
 70
     1
 40
0.000000
 41
0.000000
  6
CONTINUOUS
  0
VERTEX
  8
BOTTOM
 10
63.500000
 20
121.000000
  0
VERTEX
  8
BOTTOM
 10
63.500000
 20
121.400000
  0
VERTEX
  8
BOTTOM
 10
52.500000
 20
121.400000
  0
VERTEX
  8
BOTTOM
 10
52.500000
 20
121.000000
  0
SEQEND
  0
POLYLINE
  8
BOTTOM
 66
     1
 70
     1
 40
0.000000
 41
0.000000
  6
CONTINUOUS
  0
VERTEX
  8
BOTTOM
 10
63.500000
 20
121.800000
  0
VERTEX
  8
BOTTOM
 10
63.500000
 20
122.200000
  0
VERTEX
  8
BOTTOM
 10
52.500000
 20
122.200000
  0
VERTEX
  8
BOTTOM
 10
52.500000
 20
121.800000
  0
SEQEND
  0
POLYLINE
  8
BOTTOM
 66
     1
 70
     1
 40
0.000000
 41
0.000000
  6
CONTINUOUS
  0
VERTEX
  8
BOTTOM
 10
63.500000
 20
122.600000
  0
VERTEX
  8
BOTTOM
 10
63.500000
 20
123.000000
  0
VERTEX
  8
BOTTOM
 10
52.500000
 20
123.000000
  0
VERTEX
  8
BOTTOM
 10
52.500000
 20
122.600000
  0
SEQEND
  0
POLYLINE
  8
BOTTOM
 66
     1
 70
     1
 40
0.000000
 41
0.000000
  6
CONTINUOUS
  0
VERTEX
  8
BOTTOM
 10
63.500000
 20
123.400000
  0
VERTEX
  8
BOTTOM
 10
63.500000
 20
123.800000
  0
VERTEX
  8
BOTTOM
 10
52.500000
 20
123.800000
  0
VERTEX
  8
BOTTOM
 10
52.500000
 20
123.400000
  0
SEQEND
  0
POLYLINE
  8
BOTTOM
 66
     1
 70
     1
 40
0.000000
 41
0.000000
  6
CONTINUOUS
  0
VERTEX
  8
BOTTOM
 10
63.500000
 20
124.200000
  0
VERTEX
  8
BOTTOM
 10
63.500000
 20
124.600000
  0
VERTEX
  8
BOTTOM
 10
52.500000
 20
124.600000
  0
VERTEX
  8
BOTTOM
 10
52.500000
 20
124.200000
  0
SEQEND
  0
POLYLINE
  8
BOTTOM
 66
     1
 70
     1
 40
0.000000
 41
0.000000
  6
CONTINUOUS
  0
VERTEX
  8
BOTTOM
 10
63.500000
 20
125.000000
  0
VERTEX
  8
BOTTOM
 10
63.500000
 20
125.400000
  0
VERTEX
  8
BOTTOM
 10
52.500000
 20
125.400000
  0
VERTEX
  8
BOTTOM
 10
52.500000
 20
125.000000
  0
SEQEND
  0
POLYLINE
  8
BOTTOM
 66
     1
 70
     1
 40
0.000000
 41
0.000000
  6
CONTINUOUS
  0
VERTEX
  8
BOTTOM
 10
63.500000
 20
125.800000
  0
VERTEX
  8
BOTTOM
 10
63.500000
 20
126.200000
  0
VERTEX
  8
BOTTOM
 10
52.500000
 20
126.200000
  0
VERTEX
  8
BOTTOM
 10
52.500000
 20
125.800000
  0
SEQEND
  0
POLYLINE
  8
BOTTOM
 66
     1
 70
     1
 40
0.000000
 41
0.000000
  6
CONTINUOUS
  0
VERTEX
  8
BOTTOM
 10
63.500000
 20
126.600000
  0
VERTEX
  8
BOTTOM
 10
63.500000
 20
127.000000
  0
VERTEX
  8
BOTTOM
 10
52.500000
 20
127.000000
  0
VERTEX
  8
BOTTOM
 10
52.500000
 20
126.600000
  0
SEQEND
  0
POLYLINE
  8
BOTTOM
 66
     1
 70
     1
 40
0.000000
 41
0.000000
  6
CONTINUOUS
  0
VERTEX
  8
BOTTOM
 10
63.500000
 20
127.400000
  0
VERTEX
  8
BOTTOM
 10
63.500000
 20
127.800000
  0
VERTEX
  8
BOTTOM
 10
52.500000
 20
127.800000
  0
VERTEX
  8
BOTTOM
 10
52.500000
 20
127.400000
  0
SEQEND
  0
POLYLINE
  8
BOTTOM
 66
     1
 70
     1
 40
0.000000
 41
0.000000
  6
CONTINUOUS
  0
VERTEX
  8
BOTTOM
 10
63.500000
 20
128.200000
  0
VERTEX
  8
BOTTOM
 10
63.500000
 20
128.600000
  0
VERTEX
  8
BOTTOM
 10
52.500000
 20
128.600000
  0
VERTEX
  8
BOTTOM
 10
52.500000
 20
128.200000
  0
SEQEND
  0
POLYLINE
  8
BOTTOM
 66
     1
 70
     1
 40
0.000000
 41
0.000000
  6
CONTINUOUS
  0
VERTEX
  8
BOTTOM
 10
46.000000
 20
120.200000
  0
VERTEX
  8
BOTTOM
 10
46.000000
 20
120.600000
  0
VERTEX
  8
BOTTOM
 10
29.500000
 20
120.600000
  0
VERTEX
  8
BOTTOM
 10
29.500000
 20
120.200000
  0
SEQEND
  0
POLYLINE
  8
BOTTOM
 66
     1
 70
     1
 40
0.000000
 41
0.000000
  6
CONTINUOUS
  0
VERTEX
  8
BOTTOM
 10
46.000000
 20
121.000000
  0
VERTEX
  8
BOTTOM
 10
46.000000
 20
121.400000
  0
VERTEX
  8
BOTTOM
 10
29.500000
 20
121.400000
  0
VERTEX
  8
BOTTOM
 10
29.500000
 20
121.000000
  0
SEQEND
  0
POLYLINE
  8
BOTTOM
 66
     1
 70
     1
 40
0.000000
 41
0.000000
  6
CONTINUOUS
  0
VERTEX
  8
BOTTOM
 10
46.000000
 20
121.800000
  0
VERTEX
  8
BOTTOM
 10
46.000000
 20
122.200000
  0
VERTEX
  8
BOTTOM
 10
29.500000
 20
122.200000
  0
VERTEX
  8
BOTTOM
 10
29.500000
 20
121.800000
  0
SEQEND
  0
POLYLINE
  8
BOTTOM
 66
     1
 70
     1
 40
0.000000
 41
0.000000
  6
CONTINUOUS
  0
VERTEX
  8
BOTTOM
 10
46.000000
 20
122.600000
  0
VERTEX
  8
BOTTOM
 10
46.000000
 20
123.000000
  0
VERTEX
  8
BOTTOM
 10
29.500000
 20
123.000000
  0
VERTEX
  8
BOTTOM
 10
29.500000
 20
122.600000
  0
SEQEND
  0
POLYLINE
  8
BOTTOM
 66
     1
 70
     1
 40
0.000000
 41
0.000000
  6
CONTINUOUS
  0
VERTEX
  8
BOTTOM
 10
46.000000
 20
123.400000
  0
VERTEX
  8
BOTTOM
 10
46.000000
 20
123.800000
  0
VERTEX
  8
BOTTOM
 10
29.500000
 20
123.800000
  0
VERTEX
  8
BOTTOM
 10
29.500000
 20
123.400000
  0
SEQEND
  0
POLYLINE
  8
BOTTOM
 66
     1
 70
     1
 40
0.000000
 41
0.000000
  6
CONTINUOUS
  0
VERTEX
  8
BOTTOM
 10
46.000000
 20
124.200000
  0
VERTEX
  8
BOTTOM
 10
46.000000
 20
124.600000
  0
VERTEX
  8
BOTTOM
 10
29.500000
 20
124.600000
  0
VERTEX
  8
BOTTOM
 10
29.500000
 20
124.200000
  0
SEQEND
  0
POLYLINE
  8
BOTTOM
 66
     1
 70
     1
 40
0.000000
 41
0.000000
  6
CONTINUOUS
  0
VERTEX
  8
BOTTOM
 10
46.000000
 20
125.000000
  0
VERTEX
  8
BOTTOM
 10
46.000000
 20
125.400000
  0
VERTEX
  8
BOTTOM
 10
29.500000
 20
125.400000
  0
VERTEX
  8
BOTTOM
 10
29.500000
 20
125.000000
  0
SEQEND
  0
POLYLINE
  8
BOTTOM
 66
     1
 70
     1
 40
0.000000
 41
0.000000
  6
CONTINUOUS
  0
VERTEX
  8
BOTTOM
 10
46.000000
 20
125.800000
  0
VERTEX
  8
BOTTOM
 10
46.000000
 20
126.200000
  0
VERTEX
  8
BOTTOM
 10
29.500000
 20
126.200000
  0
VERTEX
  8
BOTTOM
 10
29.500000
 20
125.800000
  0
SEQEND
  0
POLYLINE
  8
BOTTOM
 66
     1
 70
     1
 40
0.000000
 41
0.000000
  6
CONTINUOUS
  0
VERTEX
  8
BOTTOM
 10
46.000000
 20
126.600000
  0
VERTEX
  8
BOTTOM
 10
46.000000
 20
127.000000
  0
VERTEX
  8
BOTTOM
 10
29.500000
 20
127.000000
  0
VERTEX
  8
BOTTOM
 10
29.500000
 20
126.600000
  0
SEQEND
  0
POLYLINE
  8
BOTTOM
 66
     1
 70
     1
 40
0.000000
 41
0.000000
  6
CONTINUOUS
  0
VERTEX
  8
BOTTOM
 10
46.000000
 20
127.400000
  0
VERTEX
  8
BOTTOM
 10
46.000000
 20
127.800000
  0
VERTEX
  8
BOTTOM
 10
29.500000
 20
127.800000
  0
VERTEX
  8
BOTTOM
 10
29.500000
 20
127.400000
  0
SEQEND
  0
POLYLINE
  8
BOTTOM
 66
     1
 70
     1
 40
0.000000
 41
0.000000
  6
CONTINUOUS
  0
VERTEX
  8
BOTTOM
 10
46.000000
 20
128.200000
  0
VERTEX
  8
BOTTOM
 10
46.000000
 20
128.600000
  0
VERTEX
  8
BOTTOM
 10
29.500000
 20
128.600000
  0
VERTEX
  8
BOTTOM
 10
29.500000
 20
128.200000
  0
SEQEND
  0
LINE
  8
BOTTOM
  6
CONTINUOUS
 10
47.000000
 20
129.400000
 11
47.000000
 21
129.000000
  0
POLYLINE
  8
BOTTOM
 66
     1
 70
     1
 40
0.000000
 41
0.000000
  6
CONTINUOUS
  0
VERTEX
  8
BOTTOM
 10
46.000000
 20
129.000000
  0
VERTEX
  8
BOTTOM
 10
46.000000
 20
129.400000
  0
VERTEX
  8
BOTTOM
 10
29.500000
 20
129.400000
  0
VERTEX
  8
BOTTOM
 10
29.500000
 20
129.000000
  0
SEQEND
  0
POLYLINE
  8
BOTTOM
 66
     1
 70
     1
 40
0.000000
 41
0.000000
  6
CONTINUOUS
  0
VERTEX
  8
BOTTOM
 10
63.500000
 20
129.000000
  0
VERTEX
  8
BOTTOM
 10
63.500000
 20
129.400000
  0
VERTEX
  8
BOTTOM
 10
47.000000
 20
129.400000
  0
VERTEX
  8
BOTTOM
 10
47.000000
 20
129.000000
  0
SEQEND
  0
LINE
  8
BOTTOM
  6
CONTINUOUS
 10
46.200000
 20
129.800000
 11
46.400000
 21
129.900000
  0
LINE
  8
BOTTOM
  6
CONTINUOUS
 10
46.400000
 20
129.900000
 11
46.600000
 21
129.900000
  0
LINE
  8
BOTTOM
  6
CONTINUOUS
 10
46.600000
 20
129.900000
 11
46.800000
 21
129.800000
  0
LINE
  8
BOTTOM
  6
CONTINUOUS
 10
46.800000
 20
129.800000
 11
63.500000
 21
129.800000
  0
LINE
  8
BOTTOM
  6
CONTINUOUS
 10
63.500000
 20
129.800000
 11
63.500000
 21
130.200000
  0
LINE
  8
BOTTOM
  6
CONTINUOUS
 10
63.500000
 20
130.200000
 11
29.500000
 21
130.200000
  0
LINE
  8
BOTTOM
  6
CONTINUOUS
 10
29.500000
 20
130.200000
 11
29.500000
 21
129.800000
  0
LINE
  8
BOTTOM
  6
CONTINUOUS
 10
29.500000
 20
129.800000
 11
46.200000
 21
129.800000
  0
LINE
  8
BOTTOM
  6
CONTINUOUS
 10
46.800000
 20
119.000000
 11
63.500000
 21
119.000000
  0
LINE
  8
BOTTOM
  6
CONTINUOUS
 10
63.500000
 20
119.000000
 11
63.500000
 21
118.600000
  0
LINE
  8
BOTTOM
  6
CONTINUOUS
 10
63.500000
 20
118.600000
 11
29.500000
 21
118.600000
  0
LINE
  8
BOTTOM
  6
CONTINUOUS
 10
29.500000
 20
118.600000
 11
29.500000
 21
119.000000
  0
LINE
  8
BOTTOM
  6
CONTINUOUS
 10
29.500000
 20
119.000000
 11
46.200000
 21
119.000000
  0
LINE
  8
BOTTOM
  6
CONTINUOUS
 10
46.200000
 20
119.000000
 11
46.400000
 21
118.900000
  0
LINE
  8
BOTTOM
  6
CONTINUOUS
 10
46.400000
 20
118.900000
 11
46.600000
 21
118.900000
  0
LINE
  8
BOTTOM
  6
CONTINUOUS
 10
46.600000
 20
118.900000
 11
46.800000
 21
119.000000
  0
POLYLINE
  8
BOTTOM
 66
     1
 70
     1
 40
0.000000
 41
0.000000
  6
CONTINUOUS
  0
VERTEX
  8
BOTTOM
 10
46.000000
 20
119.400000
  0
VERTEX
  8
BOTTOM
 10
46.000000
 20
119.800000
  0
VERTEX
  8
BOTTOM
 10
29.500000
 20
119.800000
  0
VERTEX
  8
BOTTOM
 10
29.500000
 20
119.400000
  0
SEQEND
  0
POLYLINE
  8
BOTTOM
 66
     1
 70
     1
 40
0.000000
 41
0.000000
  6
CONTINUOUS
  0
VERTEX
  8
BOTTOM
 10
63.500000
 20
119.400000
  0
VERTEX
  8
BOTTOM
 10
63.500000
 20
119.800000
  0
VERTEX
  8
BOTTOM
 10
47.000000
 20
119.800000
  0
VERTEX
  8
BOTTOM
 10
47.000000
 20
119.400000
  0
SEQEND
  0
LINE
  8
TOP
  6
CONTINUOUS
 10
21.300000
 20
208.200000
 11
69.700000
 21
208.200000
  0
LINE
  8
TOP
  6
CONTINUOUS
 10
69.700000
 20
208.200000
 11
69.700000
 21
207.800000
  0
LINE
  8
TOP
  6
CONTINUOUS
 10
69.700000
 20
207.800000
 11
49.500000
 21
207.800000
  0
LINE
  8
TOP
  6
CONTINUOUS
 10
49.500000
 20
207.800000
 11
49.500000
 21
207.400000
  0
LINE
  8
TOP
  6
CONTINUOUS
 10
49.500000
 20
207.400000
 11
69.700000
 21
207.400000
  0
LINE
  8
TOP
  6
CONTINUOUS
 10
69.700000
 20
207.400000
 11
69.700000
 21
207.000000
  0
LINE
  8
TOP
  6
CONTINUOUS
 10
69.700000
 20
207.000000
 11
49.500000
 21
207.000000
  0
LINE
  8
TOP
  6
CONTINUOUS
 10
49.500000
 20
207.000000
 11
49.500000
 21
206.600000
  0
LINE
  8
TOP
  6
CONTINUOUS
 10
49.500000
 20
206.600000
 11
69.700000
 21
206.600000
  0
LINE
  8
TOP
  6
CONTINUOUS
 10
69.700000
 20
206.600000
 11
69.700000
 21
206.200000
  0
LINE
  8
TOP
  6
CONTINUOUS
 10
69.700000
 20
206.200000
 11
48.600000
 21
206.200000
  0
LINE
  8
TOP
  6
CONTINUOUS
 10
48.600000
 20
206.200000
 11
48.200000
 21
206.600000
  0
LINE
  8
TOP
  6
CONTINUOUS
 10
48.200000
 20
206.600000
 11
44.100000
 21
206.600000
  0
LINE
  8
TOP
  6
CONTINUOUS
 10
44.100000
 20
206.600000
 11
43.900000
 21
206.700000
  0
LINE
  8
TOP
  6
CONTINUOUS
 10
43.900000
 20
206.700000
 11
43.200000
 21
206.400000
  0
LINE
  8
TOP
  6
CONTINUOUS
 10
43.200000
 20
206.400000
 11
43.100000
 21
206.200000
  0
LINE
  8
TOP
  6
CONTINUOUS
 10
43.100000
 20
206.200000
 11
21.600000
 21
206.200000
  0
LINE
  8
TOP
  6
CONTINUOUS
 10
21.600000
 20
206.200000
 11
21.300000
 21
206.500000
  0
LINE
  8
TOP
  6
CONTINUOUS
 10
21.300000
 20
206.500000
 11
21.300000
 21
206.600000
  0
LINE
  8
TOP
  6
CONTINUOUS
 10
21.300000
 20
206.600000
 11
41.500000
 21
206.600000
  0
LINE
  8
TOP
  6
CONTINUOUS
 10
41.500000
 20
206.600000
 11
41.500000
 21
207.000000
  0
LINE
  8
TOP
  6
CONTINUOUS
 10
41.500000
 20
207.000000
 11
21.300000
 21
207.000000
  0
LINE
  8
TOP
  6
CONTINUOUS
 10
21.300000
 20
207.000000
 11
21.300000
 21
207.400000
  0
LINE
  8
TOP
  6
CONTINUOUS
 10
21.300000
 20
207.400000
 11
41.500000
 21
207.400000
  0
LINE
  8
TOP
  6
CONTINUOUS
 10
41.500000
 20
207.400000
 11
41.500000
 21
207.800000
  0
LINE
  8
TOP
  6
CONTINUOUS
 10
41.500000
 20
207.800000
 11
21.300000
 21
207.800000
  0
LINE
  8
TOP
  6
CONTINUOUS
 10
21.300000
 20
207.800000
 11
21.300000
 21
208.200000
  0
LINE
  8
TOP
  6
CONTINUOUS
 10
18.400000
 20
204.200000
 11
19.000000
 21
204.200000
  0
LINE
  8
TOP
  6
CONTINUOUS
 10
19.000000
 20
204.200000
 11
19.100000
 21
204.100000
  0
LINE
  8
TOP
  6
CONTINUOUS
 10
19.100000
 20
204.100000
 11
19.100000
 21
202.300000
  0
LINE
  8
TOP
  6
CONTINUOUS
 10
19.100000
 20
202.300000
 11
19.000000
 21
202.200000
  0
LINE
  8
TOP
  6
CONTINUOUS
 10
19.000000
 20
202.200000
 11
18.400000
 21
202.200000
  0
LINE
  8
TOP
  6
CONTINUOUS
 10
18.400000
 20
202.200000
 11
18.300000
 21
202.300000
  0
LINE
  8
TOP
  6
CONTINUOUS
 10
18.300000
 20
202.300000
 11
18.300000
 21
204.100000
  0
LINE
  8
TOP
  6
CONTINUOUS
 10
18.300000
 20
204.100000
 11
18.400000
 21
204.200000
  0
LINE
  8
TOP
  6
CONTINUOUS
 10
72.400000
 20
204.200000
 11
73.000000
 21
204.200000
  0
LINE
  8
TOP
  6
CONTINUOUS
 10
73.000000
 20
204.200000
 11
73.100000
 21
204.100000
  0
LINE
  8
TOP
  6
CONTINUOUS
 10
73.100000
 20
204.100000
 11
73.100000
 21
202.300000
  0
LINE
  8
TOP
  6
CONTINUOUS
 10
73.100000
 20
202.300000
 11
73.000000
 21
202.200000
  0
LINE
  8
TOP
  6
CONTINUOUS
 10
73.000000
 20
202.200000
 11
72.400000
 21
202.200000
  0
LINE
  8
TOP
  6
CONTINUOUS
 10
72.400000
 20
202.200000
 11
72.300000
 21
202.300000
  0
LINE
  8
TOP
  6
CONTINUOUS
 10
72.300000
 20
202.300000
 11
72.300000
 21
204.100000
  0
LINE
  8
TOP
  6
CONTINUOUS
 10
72.300000
 20
204.100000
 11
72.400000
 21
204.200000
  0
LINE
  8
TOP
  6
CONTINUOUS
 10
45.400000
 20
204.200000
 11
46.000000
 21
204.200000
  0
LINE
  8
TOP
  6
CONTINUOUS
 10
46.000000
 20
204.200000
 11
46.100000
 21
204.100000
  0
LINE
  8
TOP
  6
CONTINUOUS
 10
46.100000
 20
204.100000
 11
46.100000
 21
202.300000
  0
LINE
  8
TOP
  6
CONTINUOUS
 10
46.100000
 20
202.300000
 11
46.000000
 21
202.200000
  0
LINE
  8
TOP
  6
CONTINUOUS
 10
46.000000
 20
202.200000
 11
45.400000
 21
202.200000
  0
LINE
  8
TOP
  6
CONTINUOUS
 10
45.400000
 20
202.200000
 11
45.300000
 21
202.300000
  0
LINE
  8
TOP
  6
CONTINUOUS
 10
45.300000
 20
202.300000
 11
45.300000
 21
204.100000
  0
LINE
  8
TOP
  6
CONTINUOUS
 10
45.300000
 20
204.100000
 11
45.400000
 21
204.200000
  0
POLYLINE
  8
TOP
 66
     1
 70
     1
 40
0.000000
 41
0.000000
  6
CONTINUOUS
  0
VERTEX
  8
TOP
 10
69.700000
 20
202.200000
  0
VERTEX
  8
TOP
 10
69.700000
 20
202.600000
  0
VERTEX
  8
TOP
 10
50.700000
 20
202.600000
  0
VERTEX
  8
TOP
 10
50.700000
 20
202.200000
  0
SEQEND
  0
POLYLINE
  8
TOP
 66
     1
 70
     1
 40
0.000000
 41
0.000000
  6
CONTINUOUS
  0
VERTEX
  8
TOP
 10
69.700000
 20
203.000000
  0
VERTEX
  8
TOP
 10
69.700000
 20
203.400000
  0
VERTEX
  8
TOP
 10
50.700000
 20
203.400000
  0
VERTEX
  8
TOP
 10
50.700000
 20
203.000000
  0
SEQEND
  0
POLYLINE
  8
TOP
 66
     1
 70
     1
 40
0.000000
 41
0.000000
  6
CONTINUOUS
  0
VERTEX
  8
TOP
 10
69.700000
 20
203.800000
  0
VERTEX
  8
TOP
 10
69.700000
 20
204.200000
  0
VERTEX
  8
TOP
 10
50.700000
 20
204.200000
  0
VERTEX
  8
TOP
 10
50.700000
 20
203.800000
  0
SEQEND
  0
LINE
  8
TOP
  6
CONTINUOUS
 10
46.200000
 20
198.200000
 11
46.100000
 21
198.200000
  0
LINE
  8
TOP
  6
CONTINUOUS
 10
46.100000
 20
198.200000
 11
46.100000
 21
195.500000
  0
LINE
  8
TOP
  6
CONTINUOUS
 10
46.100000
 20
195.500000
 11
45.300000
 21
195.500000
  0
LINE
  8
TOP
  6
CONTINUOUS
 10
45.300000
 20
195.500000
 11
45.300000
 21
198.200000
  0
LINE
  8
TOP
  6
CONTINUOUS
 10
45.300000
 20
198.200000
 11
45.200000
 21
198.200000
  0
LINE
  8
TOP
  6
CONTINUOUS
 10
45.200000
 20
198.200000
 11
45.000000
 21
198.400000
  0
LINE
  8
TOP
  6
CONTINUOUS
 10
45.000000
 20
198.400000
 11
44.600000
 21
198.400000
  0
LINE
  8
TOP
  6
CONTINUOUS
 10
44.600000
 20
198.400000
 11
44.400000
 21
198.200000
  0
LINE
  8
TOP
  6
CONTINUOUS
 10
44.400000
 20
198.200000
 11
41.500000
 21
198.200000
  0
LINE
  8
TOP
  6
CONTINUOUS
 10
41.500000
 20
198.200000
 11
31.700000
 21
198.200000
  0
LINE
  8
TOP
  6
CONTINUOUS
 10
31.700000
 20
198.200000
 11
31.600000
 21
198.200000
  0
LINE
  8
TOP
  6
CONTINUOUS
 10
31.600000
 20
198.200000
 11
29.600000
 21
198.200000
  0
LINE
  8
TOP
  6
CONTINUOUS
 10
29.600000
 20
198.200000
 11
29.500000
 21
198.200000
  0
LINE
  8
TOP
  6
CONTINUOUS
 10
29.500000
 20
198.200000
 11
21.300000
 21
198.200000
  0
LINE
  8
TOP
  6
CONTINUOUS
 10
21.300000
 20
198.200000
 11
21.300000
 21
198.600000
  0
LINE
  8
TOP
  6
CONTINUOUS
 10
21.300000
 20
198.600000
 11
41.500000
 21
198.600000
  0
LINE
  8
TOP
  6
CONTINUOUS
 10
41.500000
 20
198.600000
 11
41.500000
 21
199.000000
  0
LINE
  8
TOP
  6
CONTINUOUS
 10
41.500000
 20
199.000000
 11
21.300000
 21
199.000000
  0
LINE
  8
TOP
  6
CONTINUOUS
 10
21.300000
 20
199.000000
 11
21.300000
 21
199.400000
  0
LINE
  8
TOP
  6
CONTINUOUS
 10
21.300000
 20
199.400000
 11
41.500000
 21
199.400000
  0
LINE
  8
TOP
  6
CONTINUOUS
 10
41.500000
 20
199.400000
 11
41.500000
 21
199.800000
  0
LINE
  8
TOP
  6
CONTINUOUS
 10
41.500000
 20
199.800000
 11
21.300000
 21
199.800000
  0
LINE
  8
TOP
  6
CONTINUOUS
 10
21.300000
 20
199.800000
 11
21.300000
 21
199.900000
  0
LINE
  8
TOP
  6
CONTINUOUS
 10
21.300000
 20
199.900000
 11
21.600000
 21
200.200000
  0
LINE
  8
TOP
  6
CONTINUOUS
 10
21.600000
 20
200.200000
 11
43.100000
 21
200.200000
  0
LINE
  8
TOP
  6
CONTINUOUS
 10
43.100000
 20
200.200000
 11
43.200000
 21
200.000000
  0
LINE
  8
TOP
  6
CONTINUOUS
 10
43.200000
 20
200.000000
 11
43.900000
 21
199.700000
  0
LINE
  8
TOP
  6
CONTINUOUS
 10
43.900000
 20
199.700000
 11
44.100000
 21
199.800000
  0
LINE
  8
TOP
  6
CONTINUOUS
 10
44.100000
 20
199.800000
 11
48.200000
 21
199.800000
  0
LINE
  8
TOP
  6
CONTINUOUS
 10
48.200000
 20
199.800000
 11
48.600000
 21
200.200000
  0
LINE
  8
TOP
  6
CONTINUOUS
 10
48.600000
 20
200.200000
 11
69.700000
 21
200.200000
  0
LINE
  8
TOP
  6
CONTINUOUS
 10
69.700000
 20
200.200000
 11
69.700000
 21
199.800000
  0
LINE
  8
TOP
  6
CONTINUOUS
 10
69.700000
 20
199.800000
 11
49.500000
 21
199.800000
  0
LINE
  8
TOP
  6
CONTINUOUS
 10
49.500000
 20
199.800000
 11
49.500000
 21
199.400000
  0
LINE
  8
TOP
  6
CONTINUOUS
 10
49.500000
 20
199.400000
 11
69.700000
 21
199.400000
  0
LINE
  8
TOP
  6
CONTINUOUS
 10
69.700000
 20
199.400000
 11
69.700000
 21
199.000000
  0
LINE
  8
TOP
  6
CONTINUOUS
 10
69.700000
 20
199.000000
 11
49.500000
 21
199.000000
  0
LINE
  8
TOP
  6
CONTINUOUS
 10
49.500000
 20
199.000000
 11
49.500000
 21
198.600000
  0
LINE
  8
TOP
  6
CONTINUOUS
 10
49.500000
 20
198.600000
 11
69.700000
 21
198.600000
  0
LINE
  8
TOP
  6
CONTINUOUS
 10
69.700000
 20
198.600000
 11
69.700000
 21
198.200000
  0
LINE
  8
TOP
  6
CONTINUOUS
 10
69.700000
 20
198.200000
 11
49.500000
 21
198.200000
  0
LINE
  8
TOP
  6
CONTINUOUS
 10
49.500000
 20
198.200000
 11
47.000000
 21
198.200000
  0
LINE
  8
TOP
  6
CONTINUOUS
 10
47.000000
 20
198.200000
 11
46.800000
 21
198.400000
  0
LINE
  8
TOP
  6
CONTINUOUS
 10
46.800000
 20
198.400000
 11
46.400000
 21
198.400000
  0
LINE
  8
TOP
  6
CONTINUOUS
 10
46.400000
 20
198.400000
 11
46.200000
 21
198.200000
  0
LINE
  8
TOP
  6
CONTINUOUS
 10
80.900000
 20
119.900000
 11
78.500000
 21
119.900000
  0
LINE
  8
TOP
  6
CONTINUOUS
 10
78.500000
 20
119.900000
 11
78.500000
 21
119.700000
  0
LINE
  8
TOP
  6
CONTINUOUS
 10
78.500000
 20
119.700000
 11
78.400000
 21
119.600000
  0
LINE
  8
TOP
  6
CONTINUOUS
 10
78.400000
 20
119.600000
 11
78.200000
 21
119.600000
  0
LINE
  8
TOP
  6
CONTINUOUS
 10
78.200000
 20
119.600000
 11
78.100000
 21
119.700000
  0
LINE
  8
TOP
  6
CONTINUOUS
 10
78.100000
 20
119.700000
 11
78.100000
 21
121.700000
  0
LINE
  8
TOP
  6
CONTINUOUS
 10
78.100000
 20
121.700000
 11
78.200000
 21
121.800000
  0
LINE
  8
TOP
  6
CONTINUOUS
 10
78.200000
 20
121.800000
 11
78.400000
 21
121.800000
  0
LINE
  8
TOP
  6
CONTINUOUS
 10
78.400000
 20
121.800000
 11
78.500000
 21
121.700000
  0
LINE
  8
TOP
  6
CONTINUOUS
 10
78.500000
 20
121.700000
 11
78.500000
 21
121.500000
  0
LINE
  8
TOP
  6
CONTINUOUS
 10
78.500000
 20
121.500000
 11
80.900000
 21
121.500000
  0
LINE
  8
TOP
  6
CONTINUOUS
 10
80.900000
 20
121.500000
 11
80.900000
 21
119.900000
  0
LINE
  8
TOP
  6
CONTINUOUS
 10
52.300000
 20
139.900000
 11
49.900000
 21
139.900000
  0
LINE
  8
TOP
  6
CONTINUOUS
 10
49.900000
 20
139.900000
 11
49.900000
 21
139.700000
  0
LINE
  8
TOP
  6
CONTINUOUS
 10
49.900000
 20
139.700000
 11
49.800000
 21
139.600000
  0
LINE
  8
TOP
  6
CONTINUOUS
 10
49.800000
 20
139.600000
 11
49.600000
 21
139.600000
  0
LINE
  8
TOP
  6
CONTINUOUS
 10
49.600000
 20
139.600000
 11
49.500000
 21
139.700000
  0
LINE
  8
TOP
  6
CONTINUOUS
 10
49.500000
 20
139.700000
 11
49.500000
 21
141.700000
  0
LINE
  8
TOP
  6
CONTINUOUS
 10
49.500000
 20
141.700000
 11
49.600000
 21
141.800000
  0
LINE
  8
TOP
  6
CONTINUOUS
 10
49.600000
 20
141.800000
 11
49.800000
 21
141.800000
  0
LINE
  8
TOP
  6
CONTINUOUS
 10
49.800000
 20
141.800000
 11
49.900000
 21
141.700000
  0
LINE
  8
TOP
  6
CONTINUOUS
 10
49.900000
 20
141.700000
 11
49.900000
 21
141.500000
  0
LINE
  8
TOP
  6
CONTINUOUS
 10
49.900000
 20
141.500000
 11
52.300000
 21
141.500000
  0
LINE
  8
TOP
  6
CONTINUOUS
 10
52.300000
 20
141.500000
 11
52.300000
 21
139.900000
  0
LINE
  8
TOP
  6
CONTINUOUS
 10
12.100000
 20
120.500000
 11
14.500000
 21
120.500000
  0
LINE
  8
TOP
  6
CONTINUOUS
 10
14.500000
 20
120.500000
 11
14.500000
 21
120.700000
  0
LINE
  8
TOP
  6
CONTINUOUS
 10
14.500000
 20
120.700000
 11
14.600000
 21
120.800000
  0
LINE
  8
TOP
  6
CONTINUOUS
 10
14.600000
 20
120.800000
 11
14.800000
 21
120.800000
  0
LINE
  8
TOP
  6
CONTINUOUS
 10
14.800000
 20
120.800000
 11
14.900000
 21
120.700000
  0
LINE
  8
TOP
  6
CONTINUOUS
 10
14.900000
 20
120.700000
 11
14.900000
 21
118.700000
  0
LINE
  8
TOP
  6
CONTINUOUS
 10
14.900000
 20
118.700000
 11
14.800000
 21
118.600000
  0
LINE
  8
TOP
  6
CONTINUOUS
 10
14.800000
 20
118.600000
 11
14.600000
 21
118.600000
  0
LINE
  8
TOP
  6
CONTINUOUS
 10
14.600000
 20
118.600000
 11
14.500000
 21
118.700000
  0
LINE
  8
TOP
  6
CONTINUOUS
 10
14.500000
 20
118.700000
 11
14.500000
 21
118.900000
  0
LINE
  8
TOP
  6
CONTINUOUS
 10
14.500000
 20
118.900000
 11
12.100000
 21
118.900000
  0
LINE
  8
TOP
  6
CONTINUOUS
 10
12.100000
 20
118.900000
 11
12.100000
 21
120.500000
  0
LINE
  8
TOP
  6
CONTINUOUS
 10
12.100000
 20
204.000000
 11
14.500000
 21
204.000000
  0
LINE
  8
TOP
  6
CONTINUOUS
 10
14.500000
 20
204.000000
 11
14.500000
 21
204.200000
  0
LINE
  8
TOP
  6
CONTINUOUS
 10
14.500000
 20
204.200000
 11
14.600000
 21
204.300000
  0
LINE
  8
TOP
  6
CONTINUOUS
 10
14.600000
 20
204.300000
 11
14.800000
 21
204.300000
  0
LINE
  8
TOP
  6
CONTINUOUS
 10
14.800000
 20
204.300000
 11
14.900000
 21
204.200000
  0
LINE
  8
TOP
  6
CONTINUOUS
 10
14.900000
 20
204.200000
 11
14.900000
 21
202.200000
  0
LINE
  8
TOP
  6
CONTINUOUS
 10
14.900000
 20
202.200000
 11
14.800000
 21
202.100000
  0
LINE
  8
TOP
  6
CONTINUOUS
 10
14.800000
 20
202.100000
 11
14.600000
 21
202.100000
  0
LINE
  8
TOP
  6
CONTINUOUS
 10
14.600000
 20
202.100000
 11
14.500000
 21
202.200000
  0
LINE
  8
TOP
  6
CONTINUOUS
 10
14.500000
 20
202.200000
 11
14.500000
 21
202.400000
  0
LINE
  8
TOP
  6
CONTINUOUS
 10
14.500000
 20
202.400000
 11
12.100000
 21
202.400000
  0
LINE
  8
TOP
  6
CONTINUOUS
 10
12.100000
 20
202.400000
 11
12.100000
 21
204.000000
  0
LINE
  8
TOP
  6
CONTINUOUS
 10
12.300000
 20
176.900000
 11
14.700000
 21
176.900000
  0
LINE
  8
TOP
  6
CONTINUOUS
 10
14.700000
 20
176.900000
 11
14.700000
 21
177.100000
  0
LINE
  8
TOP
  6
CONTINUOUS
 10
14.700000
 20
177.100000
 11
14.800000
 21
177.200000
  0
LINE
  8
TOP
  6
CONTINUOUS
 10
14.800000
 20
177.200000
 11
15.000000
 21
177.200000
  0
LINE
  8
TOP
  6
CONTINUOUS
 10
15.000000
 20
177.200000
 11
15.100000
 21
177.100000
  0
LINE
  8
TOP
  6
CONTINUOUS
 10
15.100000
 20
177.100000
 11
15.100000
 21
175.100000
  0
LINE
  8
TOP
  6
CONTINUOUS
 10
15.100000
 20
175.100000
 11
15.000000
 21
175.000000
  0
LINE
  8
TOP
  6
CONTINUOUS
 10
15.000000
 20
175.000000
 11
14.800000
 21
175.000000
  0
LINE
  8
TOP
  6
CONTINUOUS
 10
14.800000
 20
175.000000
 11
14.700000
 21
175.100000
  0
LINE
  8
TOP
  6
CONTINUOUS
 10
14.700000
 20
175.100000
 11
14.700000
 21
175.300000
  0
LINE
  8
TOP
  6
CONTINUOUS
 10
14.700000
 20
175.300000
 11
12.300000
 21
175.300000
  0
LINE
  8
TOP
  6
CONTINUOUS
 10
12.300000
 20
175.300000
 11
12.300000
 21
176.900000
  0
LINE
  8
TOP
  6
CONTINUOUS
 10
12.100000
 20
160.900000
 11
14.500000
 21
160.900000
  0
LINE
  8
TOP
  6
CONTINUOUS
 10
14.500000
 20
160.900000
 11
14.500000
 21
161.100000
  0
LINE
  8
TOP
  6
CONTINUOUS
 10
14.500000
 20
161.100000
 11
14.600000
 21
161.200000
  0
LINE
  8
TOP
  6
CONTINUOUS
 10
14.600000
 20
161.200000
 11
14.800000
 21
161.200000
  0
LINE
  8
TOP
  6
CONTINUOUS
 10
14.800000
 20
161.200000
 11
14.900000
 21
161.100000
  0
LINE
  8
TOP
  6
CONTINUOUS
 10
14.900000
 20
161.100000
 11
14.900000
 21
159.100000
  0
LINE
  8
TOP
  6
CONTINUOUS
 10
14.900000
 20
159.100000
 11
14.800000
 21
159.000000
  0
LINE
  8
TOP
  6
CONTINUOUS
 10
14.800000
 20
159.000000
 11
14.600000
 21
159.000000
  0
LINE
  8
TOP
  6
CONTINUOUS
 10
14.600000
 20
159.000000
 11
14.500000
 21
159.100000
  0
LINE
  8
TOP
  6
CONTINUOUS
 10
14.500000
 20
159.100000
 11
14.500000
 21
159.300000
  0
LINE
  8
TOP
  6
CONTINUOUS
 10
14.500000
 20
159.300000
 11
12.100000
 21
159.300000
  0
LINE
  8
TOP
  6
CONTINUOUS
 10
12.100000
 20
159.300000
 11
12.100000
 21
160.900000
  0
LINE
  8
TOP
  6
CONTINUOUS
 10
80.900000
 20
159.300000
 11
78.500000
 21
159.300000
  0
LINE
  8
TOP
  6
CONTINUOUS
 10
78.500000
 20
159.300000
 11
78.500000
 21
159.100000
  0
LINE
  8
TOP
  6
CONTINUOUS
 10
78.500000
 20
159.100000
 11
78.400000
 21
159.000000
  0
LINE
  8
TOP
  6
CONTINUOUS
 10
78.400000
 20
159.000000
 11
78.200000
 21
159.000000
  0
LINE
  8
TOP
  6
CONTINUOUS
 10
78.200000
 20
159.000000
 11
78.100000
 21
159.100000
  0
LINE
  8
TOP
  6
CONTINUOUS
 10
78.100000
 20
159.100000
 11
78.100000
 21
161.100000
  0
LINE
  8
TOP
  6
CONTINUOUS
 10
78.100000
 20
161.100000
 11
78.200000
 21
161.200000
  0
LINE
  8
TOP
  6
CONTINUOUS
 10
78.200000
 20
161.200000
 11
78.400000
 21
161.200000
  0
LINE
  8
TOP
  6
CONTINUOUS
 10
78.400000
 20
161.200000
 11
78.500000
 21
161.100000
  0
LINE
  8
TOP
  6
CONTINUOUS
 10
78.500000
 20
161.100000
 11
78.500000
 21
160.900000
  0
LINE
  8
TOP
  6
CONTINUOUS
 10
78.500000
 20
160.900000
 11
80.900000
 21
160.900000
  0
LINE
  8
TOP
  6
CONTINUOUS
 10
80.900000
 20
160.900000
 11
80.900000
 21
159.300000
  0
LINE
  8
TOP
  6
CONTINUOUS
 10
68.500000
 20
170.500000
 11
68.500000
 21
172.900000
  0
LINE
  8
TOP
  6
CONTINUOUS
 10
68.500000
 20
172.900000
 11
68.300000
 21
172.900000
  0
LINE
  8
TOP
  6
CONTINUOUS
 10
68.300000
 20
172.900000
 11
68.200000
 21
173.000000
  0
LINE
  8
TOP
  6
CONTINUOUS
 10
68.200000
 20
173.000000
 11
68.200000
 21
173.200000
  0
LINE
  8
TOP
  6
CONTINUOUS
 10
68.200000
 20
173.200000
 11
68.300000
 21
173.300000
  0
LINE
  8
TOP
  6
CONTINUOUS
 10
68.300000
 20
173.300000
 11
70.300000
 21
173.300000
  0
LINE
  8
TOP
  6
CONTINUOUS
 10
70.300000
 20
173.300000
 11
70.400000
 21
173.200000
  0
LINE
  8
TOP
  6
CONTINUOUS
 10
70.400000
 20
173.200000
 11
70.400000
 21
173.000000
  0
LINE
  8
TOP
  6
CONTINUOUS
 10
70.400000
 20
173.000000
 11
70.300000
 21
172.900000
  0
LINE
  8
TOP
  6
CONTINUOUS
 10
70.300000
 20
172.900000
 11
70.100000
 21
172.900000
  0
LINE
  8
TOP
  6
CONTINUOUS
 10
70.100000
 20
172.900000
 11
70.100000
 21
170.500000
  0
LINE
  8
TOP
  6
CONTINUOUS
 10
70.100000
 20
170.500000
 11
68.500000
 21
170.500000
  0
LINE
  8
TOP
  6
CONTINUOUS
 10
70.100000
 20
193.300000
 11
70.100000
 21
190.900000
  0
LINE
  8
TOP
  6
CONTINUOUS
 10
70.100000
 20
190.900000
 11
70.300000
 21
190.900000
  0
LINE
  8
TOP
  6
CONTINUOUS
 10
70.300000
 20
190.900000
 11
70.400000
 21
190.800000
  0
LINE
  8
TOP
  6
CONTINUOUS
 10
70.400000
 20
190.800000
 11
70.400000
 21
190.600000
  0
LINE
  8
TOP
  6
CONTINUOUS
 10
70.400000
 20
190.600000
 11
70.300000
 21
190.500000
  0
LINE
  8
TOP
  6
CONTINUOUS
 10
70.300000
 20
190.500000
 11
68.300000
 21
190.500000
  0
LINE
  8
TOP
  6
CONTINUOUS
 10
68.300000
 20
190.500000
 11
68.200000
 21
190.600000
  0
LINE
  8
TOP
  6
CONTINUOUS
 10
68.200000
 20
190.600000
 11
68.200000
 21
190.800000
  0
LINE
  8
TOP
  6
CONTINUOUS
 10
68.200000
 20
190.800000
 11
68.300000
 21
190.900000
  0
LINE
  8
TOP
  6
CONTINUOUS
 10
68.300000
 20
190.900000
 11
68.500000
 21
190.900000
  0
LINE
  8
TOP
  6
CONTINUOUS
 10
68.500000
 20
190.900000
 11
68.500000
 21
193.300000
  0
LINE
  8
TOP
  6
CONTINUOUS
 10
68.500000
 20
193.300000
 11
70.100000
 21
193.300000
  0
LINE
  8
TOP
  6
CONTINUOUS
 10
78.800000
 20
204.000000
 11
78.800000
 21
202.400000
  0
LINE
  8
TOP
  6
CONTINUOUS
 10
78.800000
 20
202.400000
 11
76.500000
 21
202.400000
  0
LINE
  8
TOP
  6
CONTINUOUS
 10
76.500000
 20
202.400000
 11
76.500000
 21
202.200000
  0
LINE
  8
TOP
  6
CONTINUOUS
 10
76.500000
 20
202.200000
 11
76.400000
 21
202.100000
  0
LINE
  8
TOP
  6
CONTINUOUS
 10
76.400000
 20
202.100000
 11
76.200000
 21
202.100000
  0
LINE
  8
TOP
  6
CONTINUOUS
 10
76.200000
 20
202.100000
 11
76.100000
 21
202.200000
  0
LINE
  8
TOP
  6
CONTINUOUS
 10
76.100000
 20
202.200000
 11
76.100000
 21
204.200000
  0
LINE
  8
TOP
  6
CONTINUOUS
 10
76.100000
 20
204.200000
 11
76.200000
 21
204.300000
  0
LINE
  8
TOP
  6
CONTINUOUS
 10
76.200000
 20
204.300000
 11
76.400000
 21
204.300000
  0
LINE
  8
TOP
  6
CONTINUOUS
 10
76.400000
 20
204.300000
 11
76.500000
 21
204.200000
  0
LINE
  8
TOP
  6
CONTINUOUS
 10
76.500000
 20
204.200000
 11
76.500000
 21
204.000000
  0
LINE
  8
TOP
  6
CONTINUOUS
 10
76.500000
 20
204.000000
 11
78.800000
 21
204.000000
  0
LINE
  8
TOP
  6
CONTINUOUS
 10
66.100000
 20
163.400000
 11
68.300000
 21
161.200000
  0
LINE
  8
TOP
  6
CONTINUOUS
 10
68.300000
 20
161.200000
 11
68.300000
 21
160.700000
  0
LINE
  8
TOP
  6
CONTINUOUS
 10
68.300000
 20
160.700000
 11
68.100000
 21
160.500000
  0
LINE
  8
TOP
  6
CONTINUOUS
 10
68.100000
 20
160.500000
 11
68.100000
 21
160.200000
  0
LINE
  8
TOP
  6
CONTINUOUS
 10
68.100000
 20
160.200000
 11
68.300000
 21
160.000000
  0
LINE
  8
TOP
  6
CONTINUOUS
 10
68.300000
 20
160.000000
 11
68.300000
 21
159.800000
  0
LINE
  8
TOP
  6
CONTINUOUS
 10
68.300000
 20
159.800000
 11
72.200000
 21
159.800000
  0
LINE
  8
TOP
  6
CONTINUOUS
 10
72.200000
 20
159.800000
 11
72.200000
 21
159.000000
  0
LINE
  8
TOP
  6
CONTINUOUS
 10
72.200000
 20
159.000000
 11
68.300000
 21
159.000000
  0
LINE
  8
TOP
  6
CONTINUOUS
 10
68.300000
 20
159.000000
 11
68.300000
 21
158.800000
  0
LINE
  8
TOP
  6
CONTINUOUS
 10
68.300000
 20
158.800000
 11
68.100000
 21
158.600000
  0
LINE
  8
TOP
  6
CONTINUOUS
 10
68.100000
 20
158.600000
 11
68.100000
 21
158.300000
  0
LINE
  8
TOP
  6
CONTINUOUS
 10
68.100000
 20
158.300000
 11
68.300000
 21
158.100000
  0
LINE
  8
TOP
  6
CONTINUOUS
 10
68.300000
 20
158.100000
 11
68.300000
 21
157.600000
  0
LINE
  8
TOP
  6
CONTINUOUS
 10
68.300000
 20
157.600000
 11
66.100000
 21
155.400000
  0
LINE
  8
TOP
  6
CONTINUOUS
 10
66.100000
 20
155.400000
 11
33.200000
 21
155.400000
  0
LINE
  8
TOP
  6
CONTINUOUS
 10
33.200000
 20
155.400000
 11
33.000000
 21
155.600000
  0
LINE
  8
TOP
  6
CONTINUOUS
 10
33.000000
 20
155.600000
 11
32.600000
 21
155.600000
  0
LINE
  8
TOP
  6
CONTINUOUS
 10
32.600000
 20
155.600000
 11
32.400000
 21
155.400000
  0
LINE
  8
TOP
  6
CONTINUOUS
 10
32.400000
 20
155.400000
 11
32.300000
 21
155.200000
  0
LINE
  8
TOP
  6
CONTINUOUS
 10
32.300000
 20
155.200000
 11
32.300000
 21
153.400000
  0
LINE
  8
TOP
  6
CONTINUOUS
 10
32.300000
 20
153.400000
 11
31.500000
 21
153.400000
  0
LINE
  8
TOP
  6
CONTINUOUS
 10
31.500000
 20
153.400000
 11
31.500000
 21
155.200000
  0
LINE
  8
TOP
  6
CONTINUOUS
 10
31.500000
 20
155.200000
 11
31.400000
 21
155.400000
  0
LINE
  8
TOP
  6
CONTINUOUS
 10
31.400000
 20
155.400000
 11
31.300000
 21
155.500000
  0
LINE
  8
TOP
  6
CONTINUOUS
 10
31.300000
 20
155.500000
 11
31.000000
 21
155.600000
  0
LINE
  8
TOP
  6
CONTINUOUS
 10
31.000000
 20
155.600000
 11
23.800000
 21
155.600000
  0
LINE
  8
TOP
  6
CONTINUOUS
 10
23.800000
 20
155.600000
 11
22.300000
 21
156.400000
  0
LINE
  8
TOP
  6
CONTINUOUS
 10
22.300000
 20
156.400000
 11
23.800000
 21
157.200000
  0
LINE
  8
TOP
  6
CONTINUOUS
 10
23.800000
 20
157.200000
 11
31.700000
 21
157.200000
  0
LINE
  8
TOP
  6
CONTINUOUS
 10
31.700000
 20
157.200000
 11
32.200000
 21
157.200000
  0
LINE
  8
TOP
  6
CONTINUOUS
 10
32.200000
 20
157.200000
 11
32.400000
 21
157.300000
  0
LINE
  8
TOP
  6
CONTINUOUS
 10
32.400000
 20
157.300000
 11
32.400000
 21
157.500000
  0
LINE
  8
TOP
  6
CONTINUOUS
 10
32.400000
 20
157.500000
 11
32.200000
 21
157.600000
  0
LINE
  8
TOP
  6
CONTINUOUS
 10
32.200000
 20
157.600000
 11
23.800000
 21
157.600000
  0
LINE
  8
TOP
  6
CONTINUOUS
 10
23.800000
 20
157.600000
 11
22.400000
 21
158.400000
  0
LINE
  8
TOP
  6
CONTINUOUS
 10
22.400000
 20
158.400000
 11
23.800000
 21
159.200000
  0
LINE
  8
TOP
  6
CONTINUOUS
 10
23.800000
 20
159.200000
 11
32.200000
 21
159.200000
  0
LINE
  8
TOP
  6
CONTINUOUS
 10
32.200000
 20
159.200000
 11
32.400000
 21
159.300000
  0
LINE
  8
TOP
  6
CONTINUOUS
 10
32.400000
 20
159.300000
 11
32.400000
 21
159.500000
  0
LINE
  8
TOP
  6
CONTINUOUS
 10
32.400000
 20
159.500000
 11
32.200000
 21
159.600000
  0
LINE
  8
TOP
  6
CONTINUOUS
 10
32.200000
 20
159.600000
 11
23.800000
 21
159.600000
  0
LINE
  8
TOP
  6
CONTINUOUS
 10
23.800000
 20
159.600000
 11
22.400000
 21
160.400000
  0
LINE
  8
TOP
  6
CONTINUOUS
 10
22.400000
 20
160.400000
 11
23.800000
 21
161.200000
  0
LINE
  8
TOP
  6
CONTINUOUS
 10
23.800000
 20
161.200000
 11
32.200000
 21
161.200000
  0
LINE
  8
TOP
  6
CONTINUOUS
 10
32.200000
 20
161.200000
 11
32.400000
 21
161.300000
  0
LINE
  8
TOP
  6
CONTINUOUS
 10
32.400000
 20
161.300000
 11
32.400000
 21
161.500000
  0
LINE
  8
TOP
  6
CONTINUOUS
 10
32.400000
 20
161.500000
 11
32.200000
 21
161.600000
  0
LINE
  8
TOP
  6
CONTINUOUS
 10
32.200000
 20
161.600000
 11
23.800000
 21
161.600000
  0
LINE
  8
TOP
  6
CONTINUOUS
 10
23.800000
 20
161.600000
 11
22.400000
 21
162.400000
  0
LINE
  8
TOP
  6
CONTINUOUS
 10
22.400000
 20
162.400000
 11
23.800000
 21
163.200000
  0
LINE
  8
TOP
  6
CONTINUOUS
 10
23.800000
 20
163.200000
 11
30.900000
 21
163.200000
  0
LINE
  8
TOP
  6
CONTINUOUS
 10
30.900000
 20
163.200000
 11
31.100000
 21
163.200000
  0
LINE
  8
TOP
  6
CONTINUOUS
 10
31.100000
 20
163.200000
 11
31.400000
 21
163.400000
  0
LINE
  8
TOP
  6
CONTINUOUS
 10
31.400000
 20
163.400000
 11
31.500000
 21
163.600000
  0
LINE
  8
TOP
  6
CONTINUOUS
 10
31.500000
 20
163.600000
 11
31.500000
 21
163.800000
  0
LINE
  8
TOP
  6
CONTINUOUS
 10
31.500000
 20
163.800000
 11
31.500000
 21
166.100000
  0
LINE
  8
TOP
  6
CONTINUOUS
 10
31.500000
 20
166.100000
 11
32.300000
 21
166.100000
  0
LINE
  8
TOP
  6
CONTINUOUS
 10
32.300000
 20
166.100000
 11
32.300000
 21
163.600000
  0
LINE
  8
TOP
  6
CONTINUOUS
 10
32.300000
 20
163.600000
 11
32.400000
 21
163.400000
  0
LINE
  8
TOP
  6
CONTINUOUS
 10
32.400000
 20
163.400000
 11
32.700000
 21
163.200000
  0
LINE
  8
TOP
  6
CONTINUOUS
 10
32.700000
 20
163.200000
 11
32.900000
 21
163.200000
  0
LINE
  8
TOP
  6
CONTINUOUS
 10
32.900000
 20
163.200000
 11
33.200000
 21
163.400000
  0
LINE
  8
TOP
  6
CONTINUOUS
 10
33.200000
 20
163.400000
 11
66.100000
 21
163.400000
  0
POLYLINE
  8
TOP
 66
     1
 70
     1
 40
0.000000
 41
0.000000
  6
CONTINUOUS
  0
VERTEX
  8
TOP
 10
77.700000
 20
112.500000
  0
VERTEX
  8
TOP
 10
77.700000
 20
113.600000
  0
VERTEX
  8
TOP
 10
74.500000
 20
113.600000
  0
VERTEX
  8
TOP
 10
74.500000
 20
112.500000
  0
SEQEND
  0
POLYLINE
  8
TOP
 66
     1
 70
     1
 40
0.000000
 41
0.000000
  6
CONTINUOUS
  0
VERTEX
  8
TOP
 10
76.900000
 20
114.400000
  0
VERTEX
  8
TOP
 10
76.900000
 20
115.200000
  0
VERTEX
  8
TOP
 10
75.300000
 20
115.200000
  0
VERTEX
  8
TOP
 10
75.300000
 20
114.400000
  0
SEQEND
  0
POLYLINE
  8
TOP
 66
     1
 70
     1
 40
0.000000
 41
0.000000
  6
CONTINUOUS
  0
VERTEX
  8
TOP
 10
78.700000
 20
115.800000
  0
VERTEX
  8
TOP
 10
78.700000
 20
116.600000
  0
VERTEX
  8
TOP
 10
73.500000
 20
116.600000
  0
VERTEX
  8
TOP
 10
73.500000
 20
115.800000
  0
SEQEND
  0
POLYLINE
  8
TOP
 66
     1
 70
     1
 40
0.000000
 41
0.000000
  6
CONTINUOUS
  0
VERTEX
  8
TOP
 10
18.500000
 20
112.500000
  0
VERTEX
  8
TOP
 10
18.500000
 20
113.600000
  0
VERTEX
  8
TOP
 10
15.300000
 20
113.600000
  0
VERTEX
  8
TOP
 10
15.300000
 20
112.500000
  0
SEQEND
  0
POLYLINE
  8
TOP
 66
     1
 70
     1
 40
0.000000
 41
0.000000
  6
CONTINUOUS
  0
VERTEX
  8
TOP
 10
17.700000
 20
114.400000
  0
VERTEX
  8
TOP
 10
17.700000
 20
115.200000
  0
VERTEX
  8
TOP
 10
16.100000
 20
115.200000
  0
VERTEX
  8
TOP
 10
16.100000
 20
114.400000
  0
SEQEND
  0
POLYLINE
  8
TOP
 66
     1
 70
     1
 40
0.000000
 41
0.000000
  6
CONTINUOUS
  0
VERTEX
  8
TOP
 10
19.500000
 20
115.800000
  0
VERTEX
  8
TOP
 10
19.500000
 20
116.600000
  0
VERTEX
  8
TOP
 10
14.300000
 20
116.600000
  0
VERTEX
  8
TOP
 10
14.300000
 20
115.800000
  0
SEQEND
  0
POLYLINE
  8
TOP
 66
     1
 70
     1
 40
0.000000
 41
0.000000
  6
CONTINUOUS
  0
VERTEX
  8
TOP
 10
19.500000
 20
139.800000
  0
VERTEX
  8
TOP
 10
19.500000
 20
140.600000
  0
VERTEX
  8
TOP
 10
14.300000
 20
140.600000
  0
VERTEX
  8
TOP
 10
14.300000
 20
139.800000
  0
SEQEND
  0
POLYLINE
  8
TOP
 66
     1
 70
     1
 40
0.000000
 41
0.000000
  6
CONTINUOUS
  0
VERTEX
  8
TOP
 10
19.500000
 20
141.200000
  0
VERTEX
  8
TOP
 10
19.500000
 20
142.000000
  0
VERTEX
  8
TOP
 10
14.300000
 20
142.000000
  0
VERTEX
  8
TOP
 10
14.300000
 20
141.200000
  0
SEQEND
  0
POLYLINE
  8
TOP
 66
     1
 70
     1
 40
0.000000
 41
0.000000
  6
CONTINUOUS
  0
VERTEX
  8
TOP
 10
50.100000
 20
132.200000
  0
VERTEX
  8
TOP
 10
50.100000
 20
133.000000
  0
VERTEX
  8
TOP
 10
42.900000
 20
133.000000
  0
VERTEX
  8
TOP
 10
42.900000
 20
132.200000
  0
SEQEND
  0
POLYLINE
  8
TOP
 66
     1
 70
     1
 40
0.000000
 41
0.000000
  6
CONTINUOUS
  0
VERTEX
  8
TOP
 10
50.100000
 20
133.600000
  0
VERTEX
  8
TOP
 10
50.100000
 20
134.400000
  0
VERTEX
  8
TOP
 10
42.900000
 20
134.400000
  0
VERTEX
  8
TOP
 10
42.900000
 20
133.600000
  0
SEQEND
  0
POLYLINE
  8
TOP
 66
     1
 70
     1
 40
0.000000
 41
0.000000
  6
CONTINUOUS
  0
VERTEX
  8
TOP
 10
78.700000
 20
139.800000
  0
VERTEX
  8
TOP
 10
78.700000
 20
140.600000
  0
VERTEX
  8
TOP
 10
73.500000
 20
140.600000
  0
VERTEX
  8
TOP
 10
73.500000
 20
139.800000
  0
SEQEND
  0
POLYLINE
  8
TOP
 66
     1
 70
     1
 40
0.000000
 41
0.000000
  6
CONTINUOUS
  0
VERTEX
  8
TOP
 10
78.700000
 20
141.200000
  0
VERTEX
  8
TOP
 10
78.700000
 20
142.000000
  0
VERTEX
  8
TOP
 10
73.500000
 20
142.000000
  0
VERTEX
  8
TOP
 10
73.500000
 20
141.200000
  0
SEQEND
  0
LINE
  8
TOP
  6
CONTINUOUS
 10
42.900000
 20
201.000000
 11
21.700000
 21
201.000000
  0
LINE
  8
TOP
  6
CONTINUOUS
 10
21.700000
 20
201.000000
 11
21.700000
 21
200.600000
  0
LINE
  8
TOP
  6
CONTINUOUS
 10
21.700000
 20
200.600000
 11
43.000000
 21
200.600000
  0
LINE
  8
TOP
  6
CONTINUOUS
 10
43.000000
 20
200.600000
 11
42.900000
 21
201.000000
  0
LINE
  8
TOP
  6
CONTINUOUS
 10
43.000000
 20
205.800000
 11
21.700000
 21
205.800000
  0
LINE
  8
TOP
  6
CONTINUOUS
 10
21.700000
 20
205.800000
 11
21.700000
 21
205.400000
  0
LINE
  8
TOP
  6
CONTINUOUS
 10
21.700000
 20
205.400000
 11
42.900000
 21
205.400000
  0
LINE
  8
TOP
  6
CONTINUOUS
 10
42.900000
 20
205.400000
 11
43.000000
 21
205.800000
  0
POLYLINE
  8
TOP
 66
     1
 70
     1
 40
0.000000
 41
0.000000
  6
CONTINUOUS
  0
VERTEX
  8
TOP
 10
42.900000
 20
201.400000
  0
VERTEX
  8
TOP
 10
42.900000
 20
201.800000
  0
VERTEX
  8
TOP
 10
21.700000
 20
201.800000
  0
VERTEX
  8
TOP
 10
21.700000
 20
201.400000
  0
SEQEND
  0
POLYLINE
  8
TOP
 66
     1
 70
     1
 40
0.000000
 41
0.000000
  6
CONTINUOUS
  0
VERTEX
  8
TOP
 10
42.900000
 20
204.600000
  0
VERTEX
  8
TOP
 10
42.900000
 20
205.000000
  0
VERTEX
  8
TOP
 10
21.700000
 20
205.000000
  0
VERTEX
  8
TOP
 10
21.700000
 20
204.600000
  0
SEQEND
  0
POLYLINE
  8
TOP
 66
     1
 70
     1
 40
0.000000
 41
0.000000
  6
CONTINUOUS
  0
VERTEX
  8
TOP
 10
42.900000
 20
202.200000
  0
VERTEX
  8
TOP
 10
42.900000
 20
202.600000
  0
VERTEX
  8
TOP
 10
23.700000
 20
202.600000
  0
VERTEX
  8
TOP
 10
23.700000
 20
202.200000
  0
SEQEND
  0
POLYLINE
  8
TOP
 66
     1
 70
     1
 40
0.000000
 41
0.000000
  6
CONTINUOUS
  0
VERTEX
  8
TOP
 10
42.900000
 20
203.000000
  0
VERTEX
  8
TOP
 10
42.900000
 20
203.400000
  0
VERTEX
  8
TOP
 10
23.700000
 20
203.400000
  0
VERTEX
  8
TOP
 10
23.700000
 20
203.000000
  0
SEQEND
  0
POLYLINE
  8
TOP
 66
     1
 70
     1
 40
0.000000
 41
0.000000
  6
CONTINUOUS
  0
VERTEX
  8
TOP
 10
42.900000
 20
203.800000
  0
VERTEX
  8
TOP
 10
42.900000
 20
204.200000
  0
VERTEX
  8
TOP
 10
23.700000
 20
204.200000
  0
VERTEX
  8
TOP
 10
23.700000
 20
203.800000
  0
SEQEND
  0
POLYLINE
  8
TOP
 66
     1
 70
     1
 40
0.000000
 41
0.000000
  6
CONTINUOUS
  0
VERTEX
  8
TOP
 10
69.700000
 20
205.400000
  0
VERTEX
  8
TOP
 10
69.700000
 20
205.800000
  0
VERTEX
  8
TOP
 10
48.700000
 20
205.800000
  0
VERTEX
  8
TOP
 10
48.700000
 20
205.400000
  0
SEQEND
  0
LINE
  8
TOP
  6
CONTINUOUS
 10
45.900000
 20
115.200000
 11
45.900000
 21
114.400000
  0
LINE
  8
TOP
  6
CONTINUOUS
 10
45.900000
 20
114.400000
 11
47.100000
 21
114.400000
  0
LINE
  8
TOP
  6
CONTINUOUS
 10
47.100000
 20
114.400000
 11
47.100000
 21
115.200000
  0
LINE
  8
TOP
  6
CONTINUOUS
 10
47.100000
 20
115.200000
 11
45.900000
 21
115.200000
  0
LINE
  8
TOP
  6
CONTINUOUS
 10
43.300000
 20
116.600000
 11
49.700000
 21
116.600000
  0
LINE
  8
TOP
  6
CONTINUOUS
 10
49.700000
 20
116.600000
 11
49.700000
 21
115.800000
  0
LINE
  8
TOP
  6
CONTINUOUS
 10
49.700000
 20
115.800000
 11
43.300000
 21
115.800000
  0
LINE
  8
TOP
  6
CONTINUOUS
 10
43.300000
 20
115.800000
 11
43.300000
 21
116.600000
  0
LINE
  8
TOP
  6
CONTINUOUS
 10
45.100000
 20
113.400000
 11
45.100000
 21
112.700000
  0
LINE
  8
TOP
  6
CONTINUOUS
 10
45.100000
 20
112.700000
 11
47.900000
 21
112.700000
  0
LINE
  8
TOP
  6
CONTINUOUS
 10
47.900000
 20
112.700000
 11
47.900000
 21
113.400000
  0
LINE
  8
TOP
  6
CONTINUOUS
 10
47.900000
 20
113.400000
 11
47.200000
 21
113.400000
  0
LINE
  8
TOP
  6
CONTINUOUS
 10
47.200000
 20
113.400000
 11
47.100000
 21
113.500000
  0
LINE
  8
TOP
  6
CONTINUOUS
 10
47.100000
 20
113.500000
 11
47.100000
 21
113.600000
  0
LINE
  8
TOP
  6
CONTINUOUS
 10
47.100000
 20
113.600000
 11
45.900000
 21
113.600000
  0
LINE
  8
TOP
  6
CONTINUOUS
 10
45.900000
 20
113.600000
 11
45.900000
 21
113.500000
  0
LINE
  8
TOP
  6
CONTINUOUS
 10
45.900000
 20
113.500000
 11
45.800000
 21
113.400000
  0
LINE
  8
TOP
  6
CONTINUOUS
 10
45.800000
 20
113.400000
 11
45.100000
 21
113.400000
  0
POLYLINE
  8
TOP
 66
     1
 70
     1
 40
0.000000
 41
0.000000
  6
CONTINUOUS
  0
VERTEX
  8
TOP
 10
69.700000
 20
200.600000
  0
VERTEX
  8
TOP
 10
69.700000
 20
201.000000
  0
VERTEX
  8
TOP
 10
48.700000
 20
201.000000
  0
VERTEX
  8
TOP
 10
48.700000
 20
200.600000
  0
SEQEND
  0
POLYLINE
  8
TOP
 66
     1
 70
     1
 40
0.000000
 41
0.000000
  6
CONTINUOUS
  0
VERTEX
  8
TOP
 10
69.700000
 20
201.400000
  0
VERTEX
  8
TOP
 10
69.700000
 20
201.800000
  0
VERTEX
  8
TOP
 10
48.700000
 20
201.800000
  0
VERTEX
  8
TOP
 10
48.700000
 20
201.400000
  0
SEQEND
  0
POLYLINE
  8
TOP
 66
     1
 70
     1
 40
0.000000
 41
0.000000
  6
CONTINUOUS
  0
VERTEX
  8
TOP
 10
69.700000
 20
204.600000
  0
VERTEX
  8
TOP
 10
69.700000
 20
205.000000
  0
VERTEX
  8
TOP
 10
48.700000
 20
205.000000
  0
VERTEX
  8
TOP
 10
48.700000
 20
204.600000
  0
SEQEND
  0
POLYLINE
  8
TOP
 66
     1
 70
     1
 40
0.000000
 41
0.000000
  6
CONTINUOUS
  0
VERTEX
  8
TOP
 10
69.700000
 20
205.400000
  0
VERTEX
  8
TOP
 10
69.700000
 20
205.800000
  0
VERTEX
  8
TOP
 10
48.700000
 20
205.800000
  0
VERTEX
  8
TOP
 10
48.700000
 20
205.400000
  0
SEQEND
  0
POLYLINE
  8
ETCHTP
 66
     1
 70
     0
 40
0.400000
 41
0.400000
  6
CONTINUOUS
  0
VERTEX
  8
ETCHTP
 10
39.100000
 20
201.600000
  0
VERTEX
  8
ETCHTP
 10
31.700000
 20
201.600000
  0
SEQEND
  0
POLYLINE
  8
ETCHTP
 66
     1
 70
     0
 40
0.400000
 41
0.400000
  6
CONTINUOUS
  0
VERTEX
  8
ETCHTP
 10
39.100000
 20
202.400000
  0
VERTEX
  8
ETCHTP
 10
31.700000
 20
202.400000
  0
SEQEND
  0
POLYLINE
  8
ETCHTP
 66
     1
 70
     0
 40
0.400000
 41
0.400000
  6
CONTINUOUS
  0
VERTEX
  8
ETCHTP
 10
39.100000
 20
203.200000
  0
VERTEX
  8
ETCHTP
 10
31.700000
 20
203.200000
  0
SEQEND
  0
POLYLINE
  8
ETCHTP
 66
     1
 70
     0
 40
0.400000
 41
0.400000
  6
CONTINUOUS
  0
VERTEX
  8
ETCHTP
 10
39.100000
 20
204.000000
  0
VERTEX
  8
ETCHTP
 10
31.700000
 20
204.000000
  0
SEQEND
  0
POLYLINE
  8
ETCHTP
 66
     1
 70
     0
 40
0.400000
 41
0.400000
  6
CONTINUOUS
  0
VERTEX
  8
ETCHTP
 10
39.100000
 20
204.800000
  0
VERTEX
  8
ETCHTP
 10
31.700000
 20
204.800000
  0
SEQEND
  0
POLYLINE
  8
ETCHTP
 66
     1
 70
     0
 40
0.400000
 41
0.400000
  6
CONTINUOUS
  0
VERTEX
  8
ETCHTP
 10
59.300000
 20
201.600000
  0
VERTEX
  8
ETCHTP
 10
51.900000
 20
201.600000
  0
SEQEND
  0
POLYLINE
  8
ETCHTP
 66
     1
 70
     0
 40
0.400000
 41
0.400000
  6
CONTINUOUS
  0
VERTEX
  8
ETCHTP
 10
59.300000
 20
202.400000
  0
VERTEX
  8
ETCHTP
 10
51.900000
 20
202.400000
  0
SEQEND
  0
POLYLINE
  8
ETCHTP
 66
     1
 70
     0
 40
0.400000
 41
0.400000
  6
CONTINUOUS
  0
VERTEX
  8
ETCHTP
 10
59.300000
 20
203.200000
  0
VERTEX
  8
ETCHTP
 10
51.900000
 20
203.200000
  0
SEQEND
  0
POLYLINE
  8
ETCHTP
 66
     1
 70
     0
 40
0.400000
 41
0.400000
  6
CONTINUOUS
  0
VERTEX
  8
ETCHTP
 10
59.300000
 20
204.000000
  0
VERTEX
  8
ETCHTP
 10
51.900000
 20
204.000000
  0
SEQEND
  0
POLYLINE
  8
ETCHTP
 66
     1
 70
     0
 40
0.400000
 41
0.400000
  6
CONTINUOUS
  0
VERTEX
  8
ETCHTP
 10
59.300000
 20
204.800000
  0
VERTEX
  8
ETCHTP
 10
51.900000
 20
204.800000
  0
SEQEND
  0
POLYLINE
  8
ETCHTP
 66
     1
 70
     0
 40
0.400000
 41
0.400000
  6
CONTINUOUS
  0
VERTEX
  8
ETCHTP
 10
72.900000
 20
202.400000
  0
VERTEX
  8
ETCHTP
 10
72.900000
 20
204.000000
  0
VERTEX
  8
ETCHTP
 10
72.700000
 20
204.000000
  0
VERTEX
  8
ETCHTP
 10
72.700000
 20
202.400000
  0
VERTEX
  8
ETCHTP
 10
72.500000
 20
202.400000
  0
VERTEX
  8
ETCHTP
 10
72.500000
 20
204.000000
  0
SEQEND
  0
POLYLINE
  8
ETCHTP
 66
     1
 70
     0
 40
0.400000
 41
0.400000
  6
CONTINUOUS
  0
VERTEX
  8
ETCHTP
 10
45.900000
 20
202.400000
  0
VERTEX
  8
ETCHTP
 10
45.900000
 20
204.000000
  0
VERTEX
  8
ETCHTP
 10
45.700000
 20
204.000000
  0
VERTEX
  8
ETCHTP
 10
45.700000
 20
202.400000
  0
VERTEX
  8
ETCHTP
 10
45.500000
 20
202.400000
  0
VERTEX
  8
ETCHTP
 10
45.500000
 20
204.000000
  0
SEQEND
  0
POLYLINE
  8
ETCHTP
 66
     1
 70
     0
 40
0.400000
 41
0.400000
  6
CONTINUOUS
  0
VERTEX
  8
ETCHTP
 10
18.900000
 20
202.400000
  0
VERTEX
  8
ETCHTP
 10
18.900000
 20
204.000000
  0
VERTEX
  8
ETCHTP
 10
18.700000
 20
204.000000
  0
VERTEX
  8
ETCHTP
 10
18.700000
 20
202.400000
  0
VERTEX
  8
ETCHTP
 10
18.500000
 20
202.400000
  0
VERTEX
  8
ETCHTP
 10
18.500000
 20
204.000000
  0
SEQEND
  0
POLYLINE
  8
ETCHTP
 66
     1
 70
     0
 40
0.400000
 41
0.400000
  6
CONTINUOUS
  0
VERTEX
  8
ETCHTP
 10
43.100000
 20
132.800000
  0
VERTEX
  8
ETCHTP
 10
49.900000
 20
132.800000
  0
VERTEX
  8
ETCHTP
 10
49.900000
 20
132.600000
  0
VERTEX
  8
ETCHTP
 10
43.100000
 20
132.600000
  0
VERTEX
  8
ETCHTP
 10
43.100000
 20
132.400000
  0
VERTEX
  8
ETCHTP
 10
49.900000
 20
132.400000
  0
SEQEND
  0
POLYLINE
  8
ETCHTP
 66
     1
 70
     0
 40
0.400000
 41
0.400000
  6
CONTINUOUS
  0
VERTEX
  8
ETCHTP
 10
43.100000
 20
134.200000
  0
VERTEX
  8
ETCHTP
 10
49.900000
 20
134.200000
  0
VERTEX
  8
ETCHTP
 10
49.900000
 20
134.000000
  0
VERTEX
  8
ETCHTP
 10
43.100000
 20
134.000000
  0
VERTEX
  8
ETCHTP
 10
43.100000
 20
133.800000
  0
VERTEX
  8
ETCHTP
 10
49.900000
 20
133.800000
  0
SEQEND
  0
POLYLINE
  8
ETCHTP
 66
     1
 70
     0
 40
0.400000
 41
0.400000
  6
CONTINUOUS
  0
VERTEX
  8
ETCHTP
 10
43.100000
 20
116.400000
  0
VERTEX
  8
ETCHTP
 10
49.900000
 20
116.400000
  0
VERTEX
  8
ETCHTP
 10
49.900000
 20
116.200000
  0
VERTEX
  8
ETCHTP
 10
43.100000
 20
116.200000
  0
VERTEX
  8
ETCHTP
 10
43.100000
 20
116.000000
  0
VERTEX
  8
ETCHTP
 10
49.900000
 20
116.000000
  0
SEQEND
  0
POLYLINE
  8
ETCHTP
 66
     1
 70
     0
 40
0.400000
 41
0.400000
  6
CONTINUOUS
  0
VERTEX
  8
ETCHTP
 10
14.500000
 20
140.400000
  0
VERTEX
  8
ETCHTP
 10
19.300000
 20
140.400000
  0
VERTEX
  8
ETCHTP
 10
19.300000
 20
140.200000
  0
VERTEX
  8
ETCHTP
 10
14.500000
 20
140.200000
  0
VERTEX
  8
ETCHTP
 10
14.500000
 20
140.000000
  0
VERTEX
  8
ETCHTP
 10
19.300000
 20
140.000000
  0
SEQEND
  0
POLYLINE
  8
ETCHTP
 66
     1
 70
     0
 40
0.400000
 41
0.400000
  6
CONTINUOUS
  0
VERTEX
  8
ETCHTP
 10
73.700000
 20
140.400000
  0
VERTEX
  8
ETCHTP
 10
78.500000
 20
140.400000
  0
VERTEX
  8
ETCHTP
 10
78.500000
 20
140.200000
  0
VERTEX
  8
ETCHTP
 10
73.700000
 20
140.200000
  0
VERTEX
  8
ETCHTP
 10
73.700000
 20
140.000000
  0
VERTEX
  8
ETCHTP
 10
78.500000
 20
140.000000
  0
SEQEND
  0
POLYLINE
  8
ETCHTP
 66
     1
 70
     0
 40
0.400000
 41
0.400000
  6
CONTINUOUS
  0
VERTEX
  8
ETCHTP
 10
14.500000
 20
141.800000
  0
VERTEX
  8
ETCHTP
 10
19.300000
 20
141.800000
  0
VERTEX
  8
ETCHTP
 10
19.300000
 20
141.600000
  0
VERTEX
  8
ETCHTP
 10
14.500000
 20
141.600000
  0
VERTEX
  8
ETCHTP
 10
14.500000
 20
141.400000
  0
VERTEX
  8
ETCHTP
 10
19.300000
 20
141.400000
  0
SEQEND
  0
POLYLINE
  8
ETCHTP
 66
     1
 70
     0
 40
0.400000
 41
0.400000
  6
CONTINUOUS
  0
VERTEX
  8
ETCHTP
 10
73.700000
 20
141.800000
  0
VERTEX
  8
ETCHTP
 10
78.500000
 20
141.800000
  0
VERTEX
  8
ETCHTP
 10
78.500000
 20
141.600000
  0
VERTEX
  8
ETCHTP
 10
73.700000
 20
141.600000
  0
VERTEX
  8
ETCHTP
 10
73.700000
 20
141.400000
  0
VERTEX
  8
ETCHTP
 10
78.500000
 20
141.400000
  0
SEQEND
  0
POLYLINE
  8
ETCHTP
 66
     1
 70
     0
 40
0.400000
 41
0.400000
  6
CONTINUOUS
  0
VERTEX
  8
ETCHTP
 10
73.700000
 20
116.400000
  0
VERTEX
  8
ETCHTP
 10
78.500000
 20
116.400000
  0
VERTEX
  8
ETCHTP
 10
78.500000
 20
116.200000
  0
VERTEX
  8
ETCHTP
 10
73.700000
 20
116.200000
  0
VERTEX
  8
ETCHTP
 10
73.700000
 20
116.000000
  0
VERTEX
  8
ETCHTP
 10
78.500000
 20
116.000000
  0
SEQEND
  0
POLYLINE
  8
ETCHTP
 66
     1
 70
     0
 40
0.400000
 41
0.400000
  6
CONTINUOUS
  0
VERTEX
  8
ETCHTP
 10
14.500000
 20
116.400000
  0
VERTEX
  8
ETCHTP
 10
19.300000
 20
116.400000
  0
VERTEX
  8
ETCHTP
 10
19.300000
 20
116.200000
  0
VERTEX
  8
ETCHTP
 10
14.500000
 20
116.200000
  0
VERTEX
  8
ETCHTP
 10
14.500000
 20
116.000000
  0
VERTEX
  8
ETCHTP
 10
19.300000
 20
116.000000
  0
SEQEND
  0
POLYLINE
  8
ETCHTP
 66
     1
 70
     0
 40
0.400000
 41
0.400000
  6
CONTINUOUS
  0
VERTEX
  8
ETCHTP
 10
31.100000
 20
163.400000
  0
VERTEX
  8
ETCHTP
 10
32.800000
 20
163.400000
  0
SEQEND
  0
POLYLINE
  8
ETCHTP
 66
     1
 70
     0
 40
0.400000
 41
0.400000
  6
CONTINUOUS
  0
VERTEX
  8
ETCHTP
 10
31.000000
 20
155.400000
  0
VERTEX
  8
ETCHTP
 10
32.800000
 20
155.400000
  0
SEQEND
  0
POLYLINE
  8
ETCHTP
 66
     1
 70
     0
 40
0.400000
 41
0.400000
  6
CONTINUOUS
  0
VERTEX
  8
ETCHTP
 10
68.300000
 20
158.500000
  0
VERTEX
  8
ETCHTP
 10
68.300000
 20
160.300000
  0
SEQEND
  0
POLYLINE
  8
ETCHTP
 66
     1
 70
     0
 40
0.400000
 41
0.400000
  6
CONTINUOUS
  0
VERTEX
  8
ETCHTP
 10
29.700000
 20
198.200000
  0
VERTEX
  8
ETCHTP
 10
31.500000
 20
198.200000
  0
SEQEND
  0
POLYLINE
  8
ETCHTP
 66
     1
 70
     0
 40
0.400000
 41
0.400000
  6
CONTINUOUS
  0
VERTEX
  8
ETCHTP
 10
76.300000
 20
202.300000
  0
VERTEX
  8
ETCHTP
 10
76.300000
 20
204.100000
  0
SEQEND
  0
POLYLINE
  8
ETCHTP
 66
     1
 70
     0
 40
0.400000
 41
0.400000
  6
CONTINUOUS
  0
VERTEX
  8
ETCHTP
 10
14.700000
 20
204.100000
  0
VERTEX
  8
ETCHTP
 10
14.700000
 20
202.300000
  0
SEQEND
  0
POLYLINE
  8
ETCHTP
 66
     1
 70
     0
 40
0.400000
 41
0.400000
  6
CONTINUOUS
  0
VERTEX
  8
ETCHTP
 10
14.900000
 20
177.100000
  0
VERTEX
  8
ETCHTP
 10
14.900000
 20
175.300000
  0
SEQEND
  0
POLYLINE
  8
ETCHTP
 66
     1
 70
     0
 40
0.400000
 41
0.400000
  6
CONTINUOUS
  0
VERTEX
  8
ETCHTP
 10
14.700000
 20
120.600000
  0
VERTEX
  8
ETCHTP
 10
14.700000
 20
118.800000
  0
SEQEND
  0
POLYLINE
  8
ETCHTP
 66
     1
 70
     0
 40
0.400000
 41
0.400000
  6
CONTINUOUS
  0
VERTEX
  8
ETCHTP
 10
14.700000
 20
161.000000
  0
VERTEX
  8
ETCHTP
 10
14.700000
 20
159.200000
  0
SEQEND
  0
POLYLINE
  8
ETCHTP
 66
     1
 70
     0
 40
0.400000
 41
0.400000
  6
CONTINUOUS
  0
VERTEX
  8
ETCHTP
 10
78.300000
 20
159.200000
  0
VERTEX
  8
ETCHTP
 10
78.300000
 20
161.000000
  0
SEQEND
  0
POLYLINE
  8
ETCHTP
 66
     1
 70
     0
 40
0.400000
 41
0.400000
  6
CONTINUOUS
  0
VERTEX
  8
ETCHTP
 10
78.300000
 20
119.800000
  0
VERTEX
  8
ETCHTP
 10
78.300000
 20
121.600000
  0
SEQEND
  0
POLYLINE
  8
ETCHTP
 66
     1
 70
     0
 40
0.400000
 41
0.400000
  6
CONTINUOUS
  0
VERTEX
  8
ETCHTP
 10
49.700000
 20
139.700000
  0
VERTEX
  8
ETCHTP
 10
49.700000
 20
141.500000
  0
SEQEND
  0
POLYLINE
  8
ETCHTP
 66
     1
 70
     0
 40
0.400000
 41
0.400000
  6
CONTINUOUS
  0
VERTEX
  8
ETCHTP
 10
68.400000
 20
173.100000
  0
VERTEX
  8
ETCHTP
 10
70.200000
 20
173.100000
  0
SEQEND
  0
POLYLINE
  8
ETCHTP
 66
     1
 70
     0
 40
0.400000
 41
0.400000
  6
CONTINUOUS
  0
VERTEX
  8
ETCHTP
 10
70.200000
 20
190.700000
  0
VERTEX
  8
ETCHTP
 10
68.400000
 20
190.700000
  0
SEQEND
  0
POLYLINE
  8
ETCHTP
 66
     1
 70
     0
 40
0.400000
 41
0.400000
  6
CONTINUOUS
  0
VERTEX
  8
ETCHTP
 10
47.000000
 20
114.700000
  0
VERTEX
  8
ETCHTP
 10
46.000000
 20
114.700000
  0
VERTEX
  8
ETCHTP
 10
46.000000
 20
114.600000
  0
VERTEX
  8
ETCHTP
 10
47.000000
 20
114.600000
  0
VERTEX
  8
ETCHTP
 10
47.000000
 20
115.000000
  0
VERTEX
  8
ETCHTP
 10
46.000000
 20
115.000000
  0
VERTEX
  8
ETCHTP
 10
46.000000
 20
114.600000
  0
SEQEND
  0
POLYLINE
  8
ETCHTP
 66
     1
 70
     0
 40
0.400000
 41
0.400000
  6
CONTINUOUS
  0
VERTEX
  8
ETCHTP
 10
47.000000
 20
113.100000
  0
VERTEX
  8
ETCHTP
 10
46.000000
 20
113.100000
  0
VERTEX
  8
ETCHTP
 10
46.000000
 20
112.800000
  0
VERTEX
  8
ETCHTP
 10
47.000000
 20
112.700000
  0
VERTEX
  8
ETCHTP
 10
47.000000
 20
113.400000
  0
VERTEX
  8
ETCHTP
 10
46.000000
 20
113.400000
  0
VERTEX
  8
ETCHTP
 10
46.000000
 20
112.800000
  0
SEQEND
  0
POLYLINE
  8
ETCHTP
 66
     1
 70
     0
 40
0.400000
 41
0.400000
  6
CONTINUOUS
  0
VERTEX
  8
ETCHTP
 10
76.600000
 20
114.700000
  0
VERTEX
  8
ETCHTP
 10
75.600000
 20
114.700000
  0
VERTEX
  8
ETCHTP
 10
75.600000
 20
114.600000
  0
VERTEX
  8
ETCHTP
 10
76.600000
 20
114.600000
  0
VERTEX
  8
ETCHTP
 10
76.600000
 20
115.000000
  0
VERTEX
  8
ETCHTP
 10
75.600000
 20
115.000000
  0
VERTEX
  8
ETCHTP
 10
75.600000
 20
114.600000
  0
SEQEND
  0
POLYLINE
  8
ETCHTP
 66
     1
 70
     0
 40
0.400000
 41
0.400000
  6
CONTINUOUS
  0
VERTEX
  8
ETCHTP
 10
76.600000
 20
113.100000
  0
VERTEX
  8
ETCHTP
 10
75.600000
 20
113.100000
  0
VERTEX
  8
ETCHTP
 10
75.600000
 20
112.800000
  0
VERTEX
  8
ETCHTP
 10
76.600000
 20
112.700000
  0
VERTEX
  8
ETCHTP
 10
76.600000
 20
113.400000
  0
VERTEX
  8
ETCHTP
 10
75.600000
 20
113.400000
  0
VERTEX
  8
ETCHTP
 10
75.600000
 20
112.800000
  0
SEQEND
  0
POLYLINE
  8
ETCHTP
 66
     1
 70
     0
 40
0.400000
 41
0.400000
  6
CONTINUOUS
  0
VERTEX
  8
ETCHTP
 10
17.400000
 20
113.100000
  0
VERTEX
  8
ETCHTP
 10
16.400000
 20
113.100000
  0
VERTEX
  8
ETCHTP
 10
16.400000
 20
112.800000
  0
VERTEX
  8
ETCHTP
 10
17.400000
 20
112.700000
  0
VERTEX
  8
ETCHTP
 10
17.400000
 20
113.400000
  0
VERTEX
  8
ETCHTP
 10
16.400000
 20
113.400000
  0
VERTEX
  8
ETCHTP
 10
16.400000
 20
112.800000
  0
SEQEND
  0
POLYLINE
  8
ETCHTP
 66
     1
 70
     0
 40
0.400000
 41
0.400000
  6
CONTINUOUS
  0
VERTEX
  8
ETCHTP
 10
17.400000
 20
114.700000
  0
VERTEX
  8
ETCHTP
 10
16.400000
 20
114.700000
  0
VERTEX
  8
ETCHTP
 10
16.400000
 20
114.600000
  0
VERTEX
  8
ETCHTP
 10
17.400000
 20
114.600000
  0
VERTEX
  8
ETCHTP
 10
17.400000
 20
115.000000
  0
VERTEX
  8
ETCHTP
 10
16.400000
 20
115.000000
  0
VERTEX
  8
ETCHTP
 10
16.400000
 20
114.600000
  0
SEQEND
  0
POLYLINE
  8
ETCHTP
 66
     1
 70
     0
 40
0.400000
 41
0.400000
  6
CONTINUOUS
  0
VERTEX
  8
ETCHTP
 10
69.500000
 20
208.000000
  0
VERTEX
  8
ETCHTP
 10
49.300000
 20
208.000000
  0
SEQEND
  0
POLYLINE
  8
ETCHTP
 66
     1
 70
     0
 40
0.400000
 41
0.400000
  6
CONTINUOUS
  0
VERTEX
  8
ETCHTP
 10
69.500000
 20
207.200000
  0
VERTEX
  8
ETCHTP
 10
49.300000
 20
207.200000
  0
SEQEND
  0
POLYLINE
  8
ETCHTP
 66
     1
 70
     0
 40
0.400000
 41
0.400000
  6
CONTINUOUS
  0
VERTEX
  8
ETCHTP
 10
69.500000
 20
206.400000
  0
VERTEX
  8
ETCHTP
 10
44.000000
 20
206.400000
  0
SEQEND
  0
POLYLINE
  8
ETCHTP
 66
     1
 70
     0
 40
0.400000
 41
0.400000
  6
CONTINUOUS
  0
VERTEX
  8
ETCHTP
 10
69.500000
 20
205.600000
  0
VERTEX
  8
ETCHTP
 10
48.500000
 20
205.600000
  0
SEQEND
  0
POLYLINE
  8
ETCHTP
 66
     1
 70
     0
 40
0.400000
 41
0.400000
  6
CONTINUOUS
  0
VERTEX
  8
ETCHTP
 10
69.500000
 20
204.800000
  0
VERTEX
  8
ETCHTP
 10
48.500000
 20
204.800000
  0
SEQEND
  0
POLYLINE
  8
ETCHTP
 66
     1
 70
     0
 40
0.400000
 41
0.400000
  6
CONTINUOUS
  0
VERTEX
  8
ETCHTP
 10
69.500000
 20
204.000000
  0
VERTEX
  8
ETCHTP
 10
50.900000
 20
204.000000
  0
SEQEND
  0
POLYLINE
  8
ETCHTP
 66
     1
 70
     0
 40
0.400000
 41
0.400000
  6
CONTINUOUS
  0
VERTEX
  8
ETCHTP
 10
69.500000
 20
198.400000
  0
VERTEX
  8
ETCHTP
 10
49.300000
 20
198.400000
  0
SEQEND
  0
POLYLINE
  8
ETCHTP
 66
     1
 70
     0
 40
0.400000
 41
0.400000
  6
CONTINUOUS
  0
VERTEX
  8
ETCHTP
 10
69.500000
 20
199.200000
  0
VERTEX
  8
ETCHTP
 10
49.300000
 20
199.200000
  0
SEQEND
  0
POLYLINE
  8
ETCHTP
 66
     1
 70
     0
 40
0.400000
 41
0.400000
  6
CONTINUOUS
  0
VERTEX
  8
ETCHTP
 10
69.500000
 20
200.000000
  0
VERTEX
  8
ETCHTP
 10
44.700000
 20
200.000000
  0
SEQEND
  0
POLYLINE
  8
ETCHTP
 66
     1
 70
     0
 40
0.400000
 41
0.400000
  6
CONTINUOUS
  0
VERTEX
  8
ETCHTP
 10
69.500000
 20
200.800000
  0
VERTEX
  8
ETCHTP
 10
48.500000
 20
200.800000
  0
SEQEND
  0
POLYLINE
  8
ETCHTP
 66
     1
 70
     0
 40
0.400000
 41
0.400000
  6
CONTINUOUS
  0
VERTEX
  8
ETCHTP
 10
69.500000
 20
201.600000
  0
VERTEX
  8
ETCHTP
 10
48.500000
 20
201.600000
  0
SEQEND
  0
POLYLINE
  8
ETCHTP
 66
     1
 70
     0
 40
0.400000
 41
0.400000
  6
CONTINUOUS
  0
VERTEX
  8
ETCHTP
 10
69.500000
 20
202.400000
  0
VERTEX
  8
ETCHTP
 10
50.900000
 20
202.400000
  0
SEQEND
  0
POLYLINE
  8
ETCHTP
 66
     1
 70
     0
 40
0.400000
 41
0.400000
  6
CONTINUOUS
  0
VERTEX
  8
ETCHTP
 10
69.500000
 20
203.200000
  0
VERTEX
  8
ETCHTP
 10
50.900000
 20
203.200000
  0
SEQEND
  0
POLYLINE
  8
ETCHTP
 66
     1
 70
     0
 40
0.400000
 41
0.400000
  6
CONTINUOUS
  0
VERTEX
  8
ETCHTP
 10
41.700000
 20
208.000000
  0
VERTEX
  8
ETCHTP
 10
21.500000
 20
208.000000
  0
SEQEND
  0
POLYLINE
  8
ETCHTP
 66
     1
 70
     0
 40
0.400000
 41
0.400000
  6
CONTINUOUS
  0
VERTEX
  8
ETCHTP
 10
41.700000
 20
207.200000
  0
VERTEX
  8
ETCHTP
 10
21.500000
 20
207.200000
  0
SEQEND
  0
POLYLINE
  8
ETCHTP
 66
     1
 70
     0
 40
0.400000
 41
0.400000
  6
CONTINUOUS
  0
VERTEX
  8
ETCHTP
 10
43.400000
 20
206.400000
  0
VERTEX
  8
ETCHTP
 10
21.500000
 20
206.400000
  0
SEQEND
  0
POLYLINE
  8
ETCHTP
 66
     1
 70
     0
 40
0.400000
 41
0.400000
  6
CONTINUOUS
  0
VERTEX
  8
ETCHTP
 10
43.100000
 20
205.600000
  0
VERTEX
  8
ETCHTP
 10
21.500000
 20
205.600000
  0
SEQEND
  0
POLYLINE
  8
ETCHTP
 66
     1
 70
     0
 40
0.400000
 41
0.400000
  6
CONTINUOUS
  0
VERTEX
  8
ETCHTP
 10
43.100000
 20
204.800000
  0
VERTEX
  8
ETCHTP
 10
21.500000
 20
204.800000
  0
SEQEND
  0
POLYLINE
  8
ETCHTP
 66
     1
 70
     0
 40
0.400000
 41
0.400000
  6
CONTINUOUS
  0
VERTEX
  8
ETCHTP
 10
43.100000
 20
204.000000
  0
VERTEX
  8
ETCHTP
 10
23.900000
 20
204.000000
  0
SEQEND
  0
POLYLINE
  8
ETCHTP
 66
     1
 70
     0
 40
0.400000
 41
0.400000
  6
CONTINUOUS
  0
VERTEX
  8
ETCHTP
 10
43.100000
 20
203.200000
  0
VERTEX
  8
ETCHTP
 10
23.900000
 20
203.200000
  0
SEQEND
  0
POLYLINE
  8
ETCHTP
 66
     1
 70
     0
 40
0.400000
 41
0.400000
  6
CONTINUOUS
  0
VERTEX
  8
ETCHTP
 10
41.700000
 20
198.400000
  0
VERTEX
  8
ETCHTP
 10
21.500000
 20
198.400000
  0
SEQEND
  0
POLYLINE
  8
ETCHTP
 66
     1
 70
     0
 40
0.400000
 41
0.400000
  6
CONTINUOUS
  0
VERTEX
  8
ETCHTP
 10
41.700000
 20
199.200000
  0
VERTEX
  8
ETCHTP
 10
21.500000
 20
199.200000
  0
SEQEND
  0
POLYLINE
  8
ETCHTP
 66
     1
 70
     0
 40
0.400000
 41
0.400000
  6
CONTINUOUS
  0
VERTEX
  8
ETCHTP
 10
43.600000
 20
200.000000
  0
VERTEX
  8
ETCHTP
 10
21.500000
 20
200.000000
  0
SEQEND
  0
POLYLINE
  8
ETCHTP
 66
     1
 70
     0
 40
0.400000
 41
0.400000
  6
CONTINUOUS
  0
VERTEX
  8
ETCHTP
 10
43.100000
 20
200.800000
  0
VERTEX
  8
ETCHTP
 10
21.500000
 20
200.800000
  0
SEQEND
  0
POLYLINE
  8
ETCHTP
 66
     1
 70
     0
 40
0.400000
 41
0.400000
  6
CONTINUOUS
  0
VERTEX
  8
ETCHTP
 10
43.100000
 20
201.600000
  0
VERTEX
  8
ETCHTP
 10
21.500000
 20
201.600000
  0
SEQEND
  0
POLYLINE
  8
ETCHTP
 66
     1
 70
     0
 40
0.400000
 41
0.400000
  6
CONTINUOUS
  0
VERTEX
  8
ETCHTP
 10
43.100000
 20
202.400000
  0
VERTEX
  8
ETCHTP
 10
23.900000
 20
202.400000
  0
SEQEND
  0
SOLID
  8
ETCHTP
 10
70.100000
 20
173.100000
 11
70.100000
 21
170.600000
 12
68.500000
 22
173.100000
 13
68.500000
 23
170.600000
  0
SOLID
  8
ETCHTP
 10
32.800000
 20
166.100000
 11
32.800000
 21
163.600000
 12
31.200000
 22
166.100000
 13
31.200000
 23
163.600000
  0
SOLID
  8
ETCHTP
 10
32.700000
 20
155.200000
 11
32.700000
 21
152.700000
 12
31.100000
 22
155.200000
 13
31.100000
 23
152.700000
  0
SOLID
  8
ETCHTP
 10
70.700000
 20
160.200000
 11
70.700000
 21
158.600000
 12
68.200000
 22
160.200000
 13
68.200000
 23
158.600000
  0
SOLID
  8
ETCHTP
 10
46.600000
 20
198.000000
 11
46.600000
 21
195.500000
 12
45.000000
 22
198.000000
 13
45.000000
 23
195.500000
  0
SOLID
  8
ETCHTP
 10
14.700000
 20
160.900000
 11
14.700000
 21
159.300000
 12
12.200000
 22
160.900000
 13
12.200000
 23
159.300000
  0
SOLID
  8
ETCHTP
 10
80.900000
 20
160.900000
 11
80.900000
 21
159.300000
 12
78.400000
 22
160.900000
 13
78.400000
 23
159.300000
  0
SOLID
  8
ETCHTP
 10
80.800000
 20
121.700000
 11
80.800000
 21
120.100000
 12
78.300000
 22
121.700000
 13
78.300000
 23
120.100000
  0
SOLID
  8
ETCHTP
 10
14.700000
 20
120.500000
 11
14.700000
 21
118.900000
 12
12.200000
 22
120.500000
 13
12.200000
 23
118.900000
  0
SOLID
  8
ETCHTP
 10
70.100000
 20
193.300000
 11
70.100000
 21
190.800000
 12
68.500000
 22
193.300000
 13
68.500000
 23
190.800000
  0
SOLID
  8
ETCHTP
 10
15.000000
 20
176.900000
 11
15.000000
 21
175.300000
 12
12.500000
 22
176.900000
 13
12.500000
 23
175.300000
  0
SOLID
  8
ETCHTP
 10
52.200000
 20
141.500000
 11
52.200000
 21
139.900000
 12
49.700000
 22
141.500000
 13
49.700000
 23
139.900000
  0
SOLID
  8
ETCHTP
 10
78.800000
 20
204.000000
 11
78.800000
 21
202.400000
 12
76.300000
 22
204.000000
 13
76.300000
 23
202.400000
  0
SOLID
  8
ETCHTP
 10
14.700000
 20
204.000000
 11
14.700000
 21
202.400000
 12
12.200000
 22
204.000000
 13
12.200000
 23
202.400000
  0
SOLID
  8
ETCHTP
 10
48.100000
 20
113.600000
 11
48.100000
 21
112.500000
 12
44.900000
 22
113.600000
 13
44.900000
 23
112.500000
  0
SOLID
  8
ETCHTP
 10
77.700000
 20
113.600000
 11
77.700000
 21
112.500000
 12
74.500000
 22
113.600000
 13
74.500000
 23
112.500000
  0
SOLID
  8
ETCHTP
 10
18.500000
 20
113.600000
 11
18.500000
 21
112.500000
 12
15.300000
 22
113.600000
 13
15.300000
 23
112.500000
  0
SOLID
  8
ETCHTP
 10
47.300000
 20
115.200000
 11
47.300000
 21
114.400000
 12
45.700000
 22
115.200000
 13
45.700000
 23
114.400000
  0
SOLID
  8
ETCHTP
 10
76.900000
 20
115.200000
 11
76.900000
 21
114.400000
 12
75.300000
 22
115.200000
 13
75.300000
 23
114.400000
  0
SOLID
  8
ETCHTP
 10
17.700000
 20
115.200000
 11
17.700000
 21
114.400000
 12
16.100000
 22
115.200000
 13
16.100000
 23
114.400000
  0
POLYLINE
  8
ETCHBT
 66
     1
 70
     0
 40
0.400000
 41
0.400000
  6
CONTINUOUS
  0
VERTEX
  8
ETCHBT
 10
63.700000
 20
116.800000
  0
VERTEX
  8
ETCHBT
 10
49.900000
 20
116.800000
  0
SEQEND
  0
POLYLINE
  8
ETCHBT
 66
     1
 70
     0
 40
0.400000
 41
0.400000
  6
CONTINUOUS
  0
VERTEX
  8
ETCHBT
 10
43.100000
 20
116.800000
  0
VERTEX
  8
ETCHBT
 10
29.300000
 20
116.800000
  0
SEQEND
  0
POLYLINE
  8
ETCHBT
 66
     1
 70
     0
 40
0.400000
 41
0.400000
  6
CONTINUOUS
  0
VERTEX
  8
ETCHBT
 10
63.700000
 20
117.600000
  0
VERTEX
  8
ETCHBT
 10
49.900000
 20
117.600000
  0
SEQEND
  0
POLYLINE
  8
ETCHBT
 66
     1
 70
     0
 40
0.400000
 41
0.400000
  6
CONTINUOUS
  0
VERTEX
  8
ETCHBT
 10
43.100000
 20
117.600000
  0
VERTEX
  8
ETCHBT
 10
29.300000
 20
117.600000
  0
SEQEND
  0
POLYLINE
  8
ETCHBT
 66
     1
 70
     0
 40
0.400000
 41
0.400000
  6
CONTINUOUS
  0
VERTEX
  8
ETCHBT
 10
63.700000
 20
118.400000
  0
VERTEX
  8
ETCHBT
 10
29.300000
 20
118.400000
  0
SEQEND
  0
POLYLINE
  8
ETCHBT
 66
     1
 70
     0
 40
0.400000
 41
0.400000
  6
CONTINUOUS
  0
VERTEX
  8
ETCHBT
 10
63.700000
 20
119.200000
  0
VERTEX
  8
ETCHBT
 10
29.300000
 20
119.200000
  0
SEQEND
  0
POLYLINE
  8
ETCHBT
 66
     1
 70
     0
 40
0.400000
 41
0.400000
  6
CONTINUOUS
  0
VERTEX
  8
ETCHBT
 10
63.700000
 20
120.000000
  0
VERTEX
  8
ETCHBT
 10
29.300000
 20
120.000000
  0
SEQEND
  0
POLYLINE
  8
ETCHBT
 66
     1
 70
     0
 40
0.400000
 41
0.400000
  6
CONTINUOUS
  0
VERTEX
  8
ETCHBT
 10
63.700000
 20
120.800000
  0
VERTEX
  8
ETCHBT
 10
52.300000
 20
120.800000
  0
SEQEND
  0
POLYLINE
  8
ETCHBT
 66
     1
 70
     0
 40
0.400000
 41
0.400000
  6
CONTINUOUS
  0
VERTEX
  8
ETCHBT
 10
46.500000
 20
120.800000
  0
VERTEX
  8
ETCHBT
 10
29.300000
 20
120.800000
  0
SEQEND
  0
POLYLINE
  8
ETCHBT
 66
     1
 70
     0
 40
0.400000
 41
0.400000
  6
CONTINUOUS
  0
VERTEX
  8
ETCHBT
 10
63.700000
 20
121.600000
  0
VERTEX
  8
ETCHBT
 10
52.300000
 20
121.600000
  0
SEQEND
  0
POLYLINE
  8
ETCHBT
 66
     1
 70
     0
 40
0.400000
 41
0.400000
  6
CONTINUOUS
  0
VERTEX
  8
ETCHBT
 10
46.500000
 20
121.600000
  0
VERTEX
  8
ETCHBT
 10
29.300000
 20
121.600000
  0
SEQEND
  0
POLYLINE
  8
ETCHBT
 66
     1
 70
     0
 40
0.400000
 41
0.400000
  6
CONTINUOUS
  0
VERTEX
  8
ETCHBT
 10
63.700000
 20
122.400000
  0
VERTEX
  8
ETCHBT
 10
52.300000
 20
122.400000
  0
SEQEND
  0
POLYLINE
  8
ETCHBT
 66
     1
 70
     0
 40
0.400000
 41
0.400000
  6
CONTINUOUS
  0
VERTEX
  8
ETCHBT
 10
46.500000
 20
122.400000
  0
VERTEX
  8
ETCHBT
 10
29.300000
 20
122.400000
  0
SEQEND
  0
POLYLINE
  8
ETCHBT
 66
     1
 70
     0
 40
0.400000
 41
0.400000
  6
CONTINUOUS
  0
VERTEX
  8
ETCHBT
 10
63.700000
 20
123.200000
  0
VERTEX
  8
ETCHBT
 10
52.300000
 20
123.200000
  0
SEQEND
  0
POLYLINE
  8
ETCHBT
 66
     1
 70
     0
 40
0.400000
 41
0.400000
  6
CONTINUOUS
  0
VERTEX
  8
ETCHBT
 10
46.500000
 20
123.200000
  0
VERTEX
  8
ETCHBT
 10
29.300000
 20
123.200000
  0
SEQEND
  0
POLYLINE
  8
ETCHBT
 66
     1
 70
     0
 40
0.400000
 41
0.400000
  6
CONTINUOUS
  0
VERTEX
  8
ETCHBT
 10
63.700000
 20
124.000000
  0
VERTEX
  8
ETCHBT
 10
52.300000
 20
124.000000
  0
SEQEND
  0
POLYLINE
  8
ETCHBT
 66
     1
 70
     0
 40
0.400000
 41
0.400000
  6
CONTINUOUS
  0
VERTEX
  8
ETCHBT
 10
46.500000
 20
124.000000
  0
VERTEX
  8
ETCHBT
 10
29.300000
 20
124.000000
  0
SEQEND
  0
POLYLINE
  8
ETCHBT
 66
     1
 70
     0
 40
0.400000
 41
0.400000
  6
CONTINUOUS
  0
VERTEX
  8
ETCHBT
 10
63.700000
 20
124.800000
  0
VERTEX
  8
ETCHBT
 10
52.300000
 20
124.800000
  0
SEQEND
  0
POLYLINE
  8
ETCHBT
 66
     1
 70
     0
 40
0.400000
 41
0.400000
  6
CONTINUOUS
  0
VERTEX
  8
ETCHBT
 10
46.500000
 20
124.800000
  0
VERTEX
  8
ETCHBT
 10
29.300000
 20
124.800000
  0
SEQEND
  0
POLYLINE
  8
ETCHBT
 66
     1
 70
     0
 40
0.400000
 41
0.400000
  6
CONTINUOUS
  0
VERTEX
  8
ETCHBT
 10
63.700000
 20
125.600000
  0
VERTEX
  8
ETCHBT
 10
52.300000
 20
125.600000
  0
SEQEND
  0
POLYLINE
  8
ETCHBT
 66
     1
 70
     0
 40
0.400000
 41
0.400000
  6
CONTINUOUS
  0
VERTEX
  8
ETCHBT
 10
46.500000
 20
125.600000
  0
VERTEX
  8
ETCHBT
 10
29.300000
 20
125.600000
  0
SEQEND
  0
POLYLINE
  8
ETCHBT
 66
     1
 70
     0
 40
0.400000
 41
0.400000
  6
CONTINUOUS
  0
VERTEX
  8
ETCHBT
 10
63.700000
 20
126.400000
  0
VERTEX
  8
ETCHBT
 10
52.300000
 20
126.400000
  0
SEQEND
  0
POLYLINE
  8
ETCHBT
 66
     1
 70
     0
 40
0.400000
 41
0.400000
  6
CONTINUOUS
  0
VERTEX
  8
ETCHBT
 10
46.500000
 20
126.400000
  0
VERTEX
  8
ETCHBT
 10
29.300000
 20
126.400000
  0
SEQEND
  0
POLYLINE
  8
ETCHBT
 66
     1
 70
     0
 40
0.400000
 41
0.400000
  6
CONTINUOUS
  0
VERTEX
  8
ETCHBT
 10
63.700000
 20
127.200000
  0
VERTEX
  8
ETCHBT
 10
52.300000
 20
127.200000
  0
SEQEND
  0
POLYLINE
  8
ETCHBT
 66
     1
 70
     0
 40
0.400000
 41
0.400000
  6
CONTINUOUS
  0
VERTEX
  8
ETCHBT
 10
46.500000
 20
127.200000
  0
VERTEX
  8
ETCHBT
 10
29.300000
 20
127.200000
  0
SEQEND
  0
POLYLINE
  8
ETCHBT
 66
     1
 70
     0
 40
0.400000
 41
0.400000
  6
CONTINUOUS
  0
VERTEX
  8
ETCHBT
 10
63.700000
 20
128.000000
  0
VERTEX
  8
ETCHBT
 10
52.300000
 20
128.000000
  0
SEQEND
  0
POLYLINE
  8
ETCHBT
 66
     1
 70
     0
 40
0.400000
 41
0.400000
  6
CONTINUOUS
  0
VERTEX
  8
ETCHBT
 10
46.500000
 20
128.000000
  0
VERTEX
  8
ETCHBT
 10
29.300000
 20
128.000000
  0
SEQEND
  0
POLYLINE
  8
ETCHBT
 66
     1
 70
     0
 40
0.400000
 41
0.400000
  6
CONTINUOUS
  0
VERTEX
  8
ETCHBT
 10
63.700000
 20
128.800000
  0
VERTEX
  8
ETCHBT
 10
29.300000
 20
128.800000
  0
SEQEND
  0
POLYLINE
  8
ETCHBT
 66
     1
 70
     0
 40
0.400000
 41
0.400000
  6
CONTINUOUS
  0
VERTEX
  8
ETCHBT
 10
63.700000
 20
130.400000
  0
VERTEX
  8
ETCHBT
 10
29.300000
 20
130.400000
  0
SEQEND
  0
POLYLINE
  8
ETCHBT
 66
     1
 70
     0
 40
0.400000
 41
0.400000
  6
CONTINUOUS
  0
VERTEX
  8
ETCHBT
 10
63.700000
 20
131.200000
  0
VERTEX
  8
ETCHBT
 10
49.900000
 20
131.200000
  0
SEQEND
  0
POLYLINE
  8
ETCHBT
 66
     1
 70
     0
 40
0.400000
 41
0.400000
  6
CONTINUOUS
  0
VERTEX
  8
ETCHBT
 10
63.700000
 20
132.000000
  0
VERTEX
  8
ETCHBT
 10
49.900000
 20
132.000000
  0
SEQEND
  0
POLYLINE
  8
ETCHBT
 66
     1
 70
     0
 40
0.400000
 41
0.400000
  6
CONTINUOUS
  0
VERTEX
  8
ETCHBT
 10
43.100000
 20
132.000000
  0
VERTEX
  8
ETCHBT
 10
29.300000
 20
132.000000
  0
SEQEND
  0
POLYLINE
  8
ETCHBT
 66
     1
 70
     0
 40
0.400000
 41
0.400000
  6
CONTINUOUS
  0
VERTEX
  8
ETCHBT
 10
43.100000
 20
131.200000
  0
VERTEX
  8
ETCHBT
 10
29.300000
 20
131.200000
  0
SEQEND
  0
POLYLINE
  8
ETCHBT
 66
     1
 70
     0
 40
0.400000
 41
0.400000
  6
CONTINUOUS
  0
VERTEX
  8
ETCHBT
 10
63.700000
 20
129.600000
  0
VERTEX
  8
ETCHBT
 10
29.300000
 20
129.600000
  0
SEQEND
  0
POLYLINE
  8
ETCHBT
 66
     1
 70
     0
 40
0.400000
 41
0.400000
  6
CONTINUOUS
  0
VERTEX
  8
ETCHBT
 10
46.000000
 20
148.900000
  0
VERTEX
  8
ETCHBT
 10
47.000000
 20
148.900000
  0
VERTEX
  8
ETCHBT
 10
47.000000
 20
149.200000
  0
VERTEX
  8
ETCHBT
 10
46.000000
 20
149.200000
  0
VERTEX
  8
ETCHBT
 10
46.000000
 20
149.400000
  0
VERTEX
  8
ETCHBT
 10
47.000000
 20
149.400000
  0
VERTEX
  8
ETCHBT
 10
47.000000
 20
148.400000
  0
VERTEX
  8
ETCHBT
 10
46.000000
 20
148.700000
  0
VERTEX
  8
ETCHBT
 10
46.000000
 20
149.400000
  0
SEQEND
  0
POLYLINE
  8
ETCHBT
 66
     1
 70
     0
 40
0.400000
 41
0.400000
  6
CONTINUOUS
  0
VERTEX
  8
ETCHBT
 10
75.600000
 20
164.100000
  0
VERTEX
  8
ETCHBT
 10
76.600000
 20
164.100000
  0
VERTEX
  8
ETCHBT
 10
76.600000
 20
164.400000
  0
VERTEX
  8
ETCHBT
 10
75.600000
 20
164.400000
  0
VERTEX
  8
ETCHBT
 10
75.600000
 20
164.600000
  0
VERTEX
  8
ETCHBT
 10
76.600000
 20
164.600000
  0
VERTEX
  8
ETCHBT
 10
76.600000
 20
163.600000
  0
VERTEX
  8
ETCHBT
 10
75.600000
 20
163.900000
  0
VERTEX
  8
ETCHBT
 10
75.600000
 20
164.600000
  0
SEQEND
  0
POLYLINE
  8
ETCHBT
 66
     1
 70
     0
 40
0.400000
 41
0.400000
  6
CONTINUOUS
  0
VERTEX
  8
ETCHBT
 10
16.400000
 20
164.100000
  0
VERTEX
  8
ETCHBT
 10
17.400000
 20
164.100000
  0
VERTEX
  8
ETCHBT
 10
17.400000
 20
164.400000
  0
VERTEX
  8
ETCHBT
 10
16.400000
 20
164.400000
  0
VERTEX
  8
ETCHBT
 10
16.400000
 20
164.600000
  0
VERTEX
  8
ETCHBT
 10
17.400000
 20
164.600000
  0
VERTEX
  8
ETCHBT
 10
17.400000
 20
163.600000
  0
VERTEX
  8
ETCHBT
 10
16.400000
 20
163.900000
  0
VERTEX
  8
ETCHBT
 10
16.400000
 20
164.600000
  0
SEQEND
  0
SOLID
  8
ETCHBT
 10
47.200000
 20
149.600000
 11
47.200000
 21
148.200000
 12
45.800000
 22
149.600000
 13
45.800000
 23
148.200000
  0
SOLID
  8
ETCHBT
 10
76.800000
 20
164.800000
 11
76.800000
 21
163.400000
 12
75.400000
 22
164.800000
 13
75.400000
 23
163.400000
  0
SOLID
  8
ETCHBT
 10
17.600000
 20
164.800000
 11
17.600000
 21
163.400000
 12
16.200000
 22
164.800000
 13
16.200000
 23
163.400000
  0
POLYLINE
  8
ETCHTB
 66
     1
 70
     0
 40
0.400000
 41
0.400000
  6
CONTINUOUS
  0
VERTEX
  8
ETCHTB
 10
76.500000
 20
208.400000
  0
VERTEX
  8
ETCHTB
 10
76.500000
 20
204.100000
  0
SEQEND
  0
POLYLINE
  8
ETCHTB
 66
     1
 70
     0
 40
0.400000
 41
0.400000
  6
CONTINUOUS
  0
VERTEX
  8
ETCHTB
 10
76.500000
 20
202.300000
  0
VERTEX
  8
ETCHTB
 10
76.500000
 20
198.000000
  0
SEQEND
  0
POLYLINE
  8
ETCHTB
 66
     1
 70
     0
 40
0.400000
 41
0.400000
  6
CONTINUOUS
  0
VERTEX
  8
ETCHTB
 10
76.500000
 20
198.000000
  0
VERTEX
  8
ETCHTB
 10
46.600000
 20
198.000000
  0
SEQEND
  0
POLYLINE
  8
ETCHTB
 66
     1
 70
     0
 40
0.400000
 41
0.400000
  6
CONTINUOUS
  0
VERTEX
  8
ETCHTB
 10
44.800000
 20
198.000000
  0
VERTEX
  8
ETCHTB
 10
14.500000
 20
198.000000
  0
SEQEND
  0
POLYLINE
  8
ETCHTB
 66
     1
 70
     0
 40
0.400000
 41
0.400000
  6
CONTINUOUS
  0
VERTEX
  8
ETCHTB
 10
14.500000
 20
198.000000
  0
VERTEX
  8
ETCHTB
 10
14.500000
 20
202.300000
  0
SEQEND
  0
POLYLINE
  8
ETCHTB
 66
     1
 70
     0
 40
0.400000
 41
0.400000
  6
CONTINUOUS
  0
VERTEX
  8
ETCHTB
 10
14.500000
 20
204.100000
  0
VERTEX
  8
ETCHTB
 10
14.500000
 20
208.400000
  0
SEQEND
  0
POLYLINE
  8
ETCHTB
 66
     1
 70
     0
 40
0.400000
 41
0.400000
  6
CONTINUOUS
  0
VERTEX
  8
ETCHTB
 10
14.500000
 20
208.400000
  0
VERTEX
  8
ETCHTB
 10
76.500000
 20
208.400000
  0
SEQEND
  0
POLYLINE
  8
ETCHTB
 66
     1
 70
     0
 40
0.400000
 41
0.400000
  6
CONTINUOUS
  0
VERTEX
  8
ETCHTB
 10
72.500000
 20
202.400000
  0
VERTEX
  8
ETCHTB
 10
73.300000
 20
202.400000
  0
VERTEX
  8
ETCHTB
 10
73.500000
 20
202.200000
  0
VERTEX
  8
ETCHTB
 10
73.700000
 20
202.400000
  0
VERTEX
  8
ETCHTB
 10
74.100000
 20
202.400000
  0
VERTEX
  8
ETCHTB
 10
74.300000
 20
202.200000
  0
VERTEX
  8
ETCHTB
 10
74.500000
 20
202.400000
  0
VERTEX
  8
ETCHTB
 10
75.100000
 20
202.400000
  0
VERTEX
  8
ETCHTB
 10
75.500000
 20
202.000000
  0
VERTEX
  8
ETCHTB
 10
75.500000
 20
200.400000
  0
VERTEX
  8
ETCHTB
 10
75.100000
 20
200.000000
  0
VERTEX
  8
ETCHTB
 10
74.500000
 20
200.000000
  0
VERTEX
  8
ETCHTB
 10
74.300000
 20
200.200000
  0
VERTEX
  8
ETCHTB
 10
74.100000
 20
200.000000
  0
VERTEX
  8
ETCHTB
 10
73.700000
 20
200.000000
  0
VERTEX
  8
ETCHTB
 10
73.500000
 20
200.200000
  0
VERTEX
  8
ETCHTB
 10
73.300000
 20
200.000000
  0
VERTEX
  8
ETCHTB
 10
72.500000
 20
200.000000
  0
VERTEX
  8
ETCHTB
 10
71.900000
 20
200.600000
  0
VERTEX
  8
ETCHTB
 10
71.300000
 20
200.600000
  0
VERTEX
  8
ETCHTB
 10
71.200000
 20
199.600000
  0
VERTEX
  8
ETCHTB
 10
70.500000
 20
199.600000
  0
VERTEX
  8
ETCHTB
 10
70.100000
 20
201.000000
  0
VERTEX
  8
ETCHTB
 10
70.100000
 20
205.400000
  0
VERTEX
  8
ETCHTB
 10
70.500000
 20
206.800000
  0
VERTEX
  8
ETCHTB
 10
71.200000
 20
206.800000
  0
VERTEX
  8
ETCHTB
 10
71.300000
 20
205.800000
  0
VERTEX
  8
ETCHTB
 10
71.900000
 20
205.800000
  0
VERTEX
  8
ETCHTB
 10
72.500000
 20
206.400000
  0
VERTEX
  8
ETCHTB
 10
73.300000
 20
206.400000
  0
VERTEX
  8
ETCHTB
 10
73.500000
 20
206.200000
  0
VERTEX
  8
ETCHTB
 10
73.700000
 20
206.400000
  0
VERTEX
  8
ETCHTB
 10
74.100000
 20
206.400000
  0
VERTEX
  8
ETCHTB
 10
74.300000
 20
206.200000
  0
VERTEX
  8
ETCHTB
 10
74.500000
 20
206.400000
  0
VERTEX
  8
ETCHTB
 10
75.100000
 20
206.400000
  0
VERTEX
  8
ETCHTB
 10
75.500000
 20
206.000000
  0
VERTEX
  8
ETCHTB
 10
75.500000
 20
204.400000
  0
VERTEX
  8
ETCHTB
 10
75.100000
 20
204.000000
  0
VERTEX
  8
ETCHTB
 10
74.500000
 20
204.000000
  0
VERTEX
  8
ETCHTB
 10
74.300000
 20
204.200000
  0
VERTEX
  8
ETCHTB
 10
74.100000
 20
204.000000
  0
VERTEX
  8
ETCHTB
 10
73.700000
 20
204.000000
  0
VERTEX
  8
ETCHTB
 10
73.500000
 20
204.200000
  0
VERTEX
  8
ETCHTB
 10
73.300000
 20
204.000000
  0
VERTEX
  8
ETCHTB
 10
72.500000
 20
204.000000
  0
SEQEND
  0
POLYLINE
  8
ETCHTB
 66
     1
 70
     0
 40
0.400000
 41
0.400000
  6
CONTINUOUS
  0
VERTEX
  8
ETCHTB
 10
45.500000
 20
202.400000
  0
VERTEX
  8
ETCHTB
 10
46.300000
 20
202.400000
  0
VERTEX
  8
ETCHTB
 10
46.500000
 20
202.200000
  0
VERTEX
  8
ETCHTB
 10
46.700000
 20
202.400000
  0
VERTEX
  8
ETCHTB
 10
47.100000
 20
202.400000
  0
VERTEX
  8
ETCHTB
 10
47.300000
 20
202.200000
  0
VERTEX
  8
ETCHTB
 10
47.500000
 20
202.400000
  0
VERTEX
  8
ETCHTB
 10
48.100000
 20
202.400000
  0
VERTEX
  8
ETCHTB
 10
48.500000
 20
202.000000
  0
VERTEX
  8
ETCHTB
 10
48.500000
 20
200.400000
  0
VERTEX
  8
ETCHTB
 10
48.100000
 20
200.000000
  0
VERTEX
  8
ETCHTB
 10
47.500000
 20
200.000000
  0
VERTEX
  8
ETCHTB
 10
47.300000
 20
200.200000
  0
VERTEX
  8
ETCHTB
 10
47.100000
 20
200.000000
  0
VERTEX
  8
ETCHTB
 10
46.700000
 20
200.000000
  0
VERTEX
  8
ETCHTB
 10
46.500000
 20
200.200000
  0
VERTEX
  8
ETCHTB
 10
46.300000
 20
200.000000
  0
VERTEX
  8
ETCHTB
 10
45.500000
 20
200.000000
  0
VERTEX
  8
ETCHTB
 10
44.800000
 20
200.900000
  0
VERTEX
  8
ETCHTB
 10
43.900000
 20
199.900000
  0
VERTEX
  8
ETCHTB
 10
43.400000
 20
200.100000
  0
VERTEX
  8
ETCHTB
 10
43.100000
 20
201.000000
  0
VERTEX
  8
ETCHTB
 10
43.100000
 20
205.400000
  0
VERTEX
  8
ETCHTB
 10
43.400000
 20
206.300000
  0
VERTEX
  8
ETCHTB
 10
43.900000
 20
206.500000
  0
VERTEX
  8
ETCHTB
 10
44.800000
 20
205.500000
  0
VERTEX
  8
ETCHTB
 10
45.500000
 20
206.400000
  0
VERTEX
  8
ETCHTB
 10
46.300000
 20
206.400000
  0
VERTEX
  8
ETCHTB
 10
46.500000
 20
206.200000
  0
VERTEX
  8
ETCHTB
 10
46.700000
 20
206.400000
  0
VERTEX
  8
ETCHTB
 10
47.100000
 20
206.400000
  0
VERTEX
  8
ETCHTB
 10
47.300000
 20
206.200000
  0
VERTEX
  8
ETCHTB
 10
47.500000
 20
206.400000
  0
VERTEX
  8
ETCHTB
 10
48.100000
 20
206.400000
  0
VERTEX
  8
ETCHTB
 10
48.500000
 20
206.000000
  0
VERTEX
  8
ETCHTB
 10
48.500000
 20
204.400000
  0
VERTEX
  8
ETCHTB
 10
48.100000
 20
204.000000
  0
VERTEX
  8
ETCHTB
 10
47.500000
 20
204.000000
  0
VERTEX
  8
ETCHTB
 10
47.300000
 20
204.200000
  0
VERTEX
  8
ETCHTB
 10
47.100000
 20
204.000000
  0
VERTEX
  8
ETCHTB
 10
46.700000
 20
204.000000
  0
VERTEX
  8
ETCHTB
 10
46.500000
 20
204.200000
  0
VERTEX
  8
ETCHTB
 10
46.300000
 20
204.000000
  0
VERTEX
  8
ETCHTB
 10
45.500000
 20
204.000000
  0
SEQEND
  0
POLYLINE
  8
ETCHTB
 66
     1
 70
     0
 40
0.400000
 41
0.400000
  6
CONTINUOUS
  0
VERTEX
  8
ETCHTB
 10
18.500000
 20
202.400000
  0
VERTEX
  8
ETCHTB
 10
19.300000
 20
202.400000
  0
VERTEX
  8
ETCHTB
 10
19.500000
 20
202.200000
  0
VERTEX
  8
ETCHTB
 10
19.700000
 20
202.400000
  0
VERTEX
  8
ETCHTB
 10
20.100000
 20
202.400000
  0
VERTEX
  8
ETCHTB
 10
20.300000
 20
202.200000
  0
VERTEX
  8
ETCHTB
 10
20.500000
 20
202.400000
  0
VERTEX
  8
ETCHTB
 10
21.100000
 20
202.400000
  0
VERTEX
  8
ETCHTB
 10
21.500000
 20
202.000000
  0
VERTEX
  8
ETCHTB
 10
21.500000
 20
200.400000
  0
VERTEX
  8
ETCHTB
 10
21.100000
 20
200.000000
  0
VERTEX
  8
ETCHTB
 10
20.500000
 20
200.000000
  0
VERTEX
  8
ETCHTB
 10
20.300000
 20
200.200000
  0
VERTEX
  8
ETCHTB
 10
20.100000
 20
200.000000
  0
VERTEX
  8
ETCHTB
 10
19.700000
 20
200.000000
  0
VERTEX
  8
ETCHTB
 10
19.500000
 20
200.200000
  0
VERTEX
  8
ETCHTB
 10
19.300000
 20
200.000000
  0
VERTEX
  8
ETCHTB
 10
18.500000
 20
200.000000
  0
VERTEX
  8
ETCHTB
 10
17.900000
 20
200.600000
  0
VERTEX
  8
ETCHTB
 10
17.300000
 20
200.600000
  0
VERTEX
  8
ETCHTB
 10
17.200000
 20
199.600000
  0
VERTEX
  8
ETCHTB
 10
16.500000
 20
199.600000
  0
VERTEX
  8
ETCHTB
 10
16.100000
 20
201.000000
  0
VERTEX
  8
ETCHTB
 10
16.100000
 20
205.400000
  0
VERTEX
  8
ETCHTB
 10
16.500000
 20
206.800000
  0
VERTEX
  8
ETCHTB
 10
17.200000
 20
206.800000
  0
VERTEX
  8
ETCHTB
 10
17.300000
 20
205.800000
  0
VERTEX
  8
ETCHTB
 10
17.900000
 20
205.800000
  0
VERTEX
  8
ETCHTB
 10
18.500000
 20
206.400000
  0
VERTEX
  8
ETCHTB
 10
19.300000
 20
206.400000
  0
VERTEX
  8
ETCHTB
 10
19.500000
 20
206.200000
  0
VERTEX
  8
ETCHTB
 10
19.700000
 20
206.400000
  0
VERTEX
  8
ETCHTB
 10
20.100000
 20
206.400000
  0
VERTEX
  8
ETCHTB
 10
20.300000
 20
206.200000
  0
VERTEX
  8
ETCHTB
 10
20.500000
 20
206.400000
  0
VERTEX
  8
ETCHTB
 10
21.100000
 20
206.400000
  0
VERTEX
  8
ETCHTB
 10
21.500000
 20
206.000000
  0
VERTEX
  8
ETCHTB
 10
21.500000
 20
204.400000
  0
VERTEX
  8
ETCHTB
 10
21.100000
 20
204.000000
  0
VERTEX
  8
ETCHTB
 10
20.500000
 20
204.000000
  0
VERTEX
  8
ETCHTB
 10
20.300000
 20
204.200000
  0
VERTEX
  8
ETCHTB
 10
20.100000
 20
204.000000
  0
VERTEX
  8
ETCHTB
 10
19.700000
 20
204.000000
  0
VERTEX
  8
ETCHTB
 10
19.500000
 20
204.200000
  0
VERTEX
  8
ETCHTB
 10
19.300000
 20
204.000000
  0
VERTEX
  8
ETCHTB
 10
18.500000
 20
204.000000
  0
SEQEND
  0
POLYLINE
  8
ETCHTB
 66
     1
 70
     0
 40
0.400000
 41
0.400000
  6
CONTINUOUS
  0
VERTEX
  8
ETCHTB
 10
70.200000
 20
190.900000
  0
VERTEX
  8
ETCHTB
 10
86.700000
 20
190.900000
  0
VERTEX
  8
ETCHTB
 10
88.300000
 20
189.300000
  0
VERTEX
  8
ETCHTB
 10
88.300000
 20
186.500000
  0
VERTEX
  8
ETCHTB
 10
86.700000
 20
184.900000
  0
VERTEX
  8
ETCHTB
 10
77.100000
 20
184.900000
  0
VERTEX
  8
ETCHTB
 10
77.100000
 20
181.900000
  0
VERTEX
  8
ETCHTB
 10
73.700000
 20
180.400000
  0
VERTEX
  8
ETCHTB
 10
70.700000
 20
180.400000
  0
VERTEX
  8
ETCHTB
 10
70.700000
 20
175.800000
  0
VERTEX
  8
ETCHTB
 10
73.700000
 20
175.800000
  0
VERTEX
  8
ETCHTB
 10
77.100000
 20
174.300000
  0
VERTEX
  8
ETCHTB
 10
77.100000
 20
172.900000
  0
VERTEX
  8
ETCHTB
 10
70.200000
 20
172.900000
  0
SEQEND
  0
POLYLINE
  8
ETCHTB
 66
     1
 70
     0
 40
0.400000
 41
0.400000
  6
CONTINUOUS
  0
VERTEX
  8
ETCHTB
 10
14.700000
 20
177.100000
  0
VERTEX
  8
ETCHTB
 10
14.700000
 20
180.900000
  0
SEQEND
  0
POLYLINE
  8
ETCHTB
 66
     1
 70
     0
 40
0.400000
 41
0.400000
  6
CONTINUOUS
  0
VERTEX
  8
ETCHTB
 10
68.400000
 20
172.900000
  0
VERTEX
  8
ETCHTB
 10
14.700000
 20
172.900000
  0
VERTEX
  8
ETCHTB
 10
14.700000
 20
173.900000
  0
VERTEX
  8
ETCHTB
 10
14.700000
 20
175.300000
  0
SEQEND
  0
POLYLINE
  8
ETCHTB
 66
     1
 70
     0
 40
0.400000
 41
0.400000
  6
CONTINUOUS
  0
VERTEX
  8
ETCHTB
 10
14.700000
 20
180.900000
  0
VERTEX
  8
ETCHTB
 10
14.700000
 20
183.300000
  0
VERTEX
  8
ETCHTB
 10
14.700000
 20
190.900000
  0
VERTEX
  8
ETCHTB
 10
22.900000
 20
190.900000
  0
VERTEX
  8
ETCHTB
 10
40.100000
 20
190.900000
  0
VERTEX
  8
ETCHTB
 10
40.100000
 20
183.300000
  0
VERTEX
  8
ETCHTB
 10
53.600000
 20
183.300000
  0
VERTEX
  8
ETCHTB
 10
53.600000
 20
190.900000
  0
VERTEX
  8
ETCHTB
 10
64.900000
 20
190.900000
  0
VERTEX
  8
ETCHTB
 10
68.400000
 20
190.900000
  0
SEQEND
  0
POLYLINE
  8
ETCHTB
 66
     1
 70
     0
 40
1.000000
 41
1.000000
  6
CONTINUOUS
  0
VERTEX
  8
ETCHTB
 10
66.700000
 20
184.300000
  0
VERTEX
  8
ETCHTB
 10
56.700000
 20
184.300000
  0
SEQEND
  0
POLYLINE
  8
ETCHTB
 66
     1
 70
     0
 40
1.000000
 41
1.000000
  6
CONTINUOUS
  0
VERTEX
  8
ETCHTB
 10
36.400000
 20
184.300000
  0
VERTEX
  8
ETCHTB
 10
17.700000
 20
184.300000
  0
SEQEND
  0
POLYLINE
  8
ETCHTB
 66
     1
 70
     0
 40
1.000000
 41
1.000000
  6
CONTINUOUS
  0
VERTEX
  8
ETCHTB
 10
66.700000
 20
178.300000
  0
VERTEX
  8
ETCHTB
 10
56.700000
 20
178.300000
  0
SEQEND
  0
POLYLINE
  8
ETCHTB
 66
     1
 70
     0
 40
1.000000
 41
1.000000
  6
CONTINUOUS
  0
VERTEX
  8
ETCHTB
 10
38.800000
 20
178.300000
  0
VERTEX
  8
ETCHTB
 10
28.800000
 20
178.300000
  0
SEQEND
  0
POLYLINE
  8
ETCHTB
 66
     1
 70
     0
 40
1.000000
 41
1.000000
  6
CONTINUOUS
  0
VERTEX
  8
ETCHTB
 10
66.700000
 20
175.300000
  0
VERTEX
  8
ETCHTB
 10
56.700000
 20
175.300000
  0
SEQEND
  0
POLYLINE
  8
ETCHTB
 66
     1
 70
     0
 40
1.000000
 41
1.000000
  6
CONTINUOUS
  0
VERTEX
  8
ETCHTB
 10
38.800000
 20
175.300000
  0
VERTEX
  8
ETCHTB
 10
28.800000
 20
175.300000
  0
SEQEND
  0
POLYLINE
  8
ETCHTB
 66
     1
 70
     0
 40
1.000000
 41
1.000000
  6
CONTINUOUS
  0
VERTEX
  8
ETCHTB
 10
66.700000
 20
181.300000
  0
VERTEX
  8
ETCHTB
 10
56.700000
 20
181.300000
  0
SEQEND
  0
POLYLINE
  8
ETCHTB
 66
     1
 70
     0
 40
1.000000
 41
1.000000
  6
CONTINUOUS
  0
VERTEX
  8
ETCHTB
 10
38.800000
 20
181.300000
  0
VERTEX
  8
ETCHTB
 10
28.800000
 20
181.300000
  0
SEQEND
  0
POLYLINE
  8
ETCHTB
 66
     1
 70
     0
 40
1.000000
 41
1.000000
  6
CONTINUOUS
  0
VERTEX
  8
ETCHTB
 10
66.700000
 20
187.300000
  0
VERTEX
  8
ETCHTB
 10
56.700000
 20
187.300000
  0
SEQEND
  0
POLYLINE
  8
ETCHTB
 66
     1
 70
     0
 40
1.000000
 41
1.000000
  6
CONTINUOUS
  0
VERTEX
  8
ETCHTB
 10
36.400000
 20
187.300000
  0
VERTEX
  8
ETCHTB
 10
17.700000
 20
187.300000
  0
SEQEND
  0
POLYLINE
  8
ETCHTB
 66
     1
 70
     0
 40
1.000000
 41
1.000000
  6
CONTINUOUS
  0
VERTEX
  8
ETCHTB
 10
73.500000
 20
119.400000
  0
VERTEX
  8
ETCHTB
 10
73.500000
 20
129.400000
  0
SEQEND
  0
POLYLINE
  8
ETCHTB
 66
     1
 70
     0
 40
1.000000
 41
1.000000
  6
CONTINUOUS
  0
VERTEX
  8
ETCHTB
 10
19.500000
 20
119.400000
  0
VERTEX
  8
ETCHTB
 10
19.500000
 20
129.400000
  0
SEQEND
  0
POLYLINE
  8
ETCHTB
 66
     1
 70
     0
 40
1.000000
 41
1.000000
  6
CONTINUOUS
  0
VERTEX
  8
ETCHTB
 10
73.500000
 20
152.400000
  0
VERTEX
  8
ETCHTB
 10
73.500000
 20
162.400000
  0
SEQEND
  0
POLYLINE
  8
ETCHTB
 66
     1
 70
     0
 40
1.000000
 41
1.000000
  6
CONTINUOUS
  0
VERTEX
  8
ETCHTB
 10
46.500000
 20
119.400000
  0
VERTEX
  8
ETCHTB
 10
46.500000
 20
129.400000
  0
SEQEND
  0
POLYLINE
  8
ETCHTB
 66
     1
 70
     0
 40
1.000000
 41
1.000000
  6
CONTINUOUS
  0
VERTEX
  8
ETCHTB
 10
46.500000
 20
137.200000
  0
VERTEX
  8
ETCHTB
 10
46.500000
 20
147.200000
  0
SEQEND
  0
POLYLINE
  8
ETCHTB
 66
     1
 70
     0
 40
0.400000
 41
0.400000
  6
CONTINUOUS
  0
VERTEX
  8
ETCHTB
 10
19.300000
 20
136.800000
  0
VERTEX
  8
ETCHTB
 10
19.300000
 20
136.600000
  0
SEQEND
  0
POLYLINE
  8
ETCHTB
 66
     1
 70
     0
 40
0.500000
 41
0.500000
  6
CONTINUOUS
  0
VERTEX
  8
ETCHTB
 10
27.300000
 20
161.400000
  0
VERTEX
  8
ETCHTB
 10
23.800000
 20
161.400000
  0
VERTEX
  8
ETCHTB
 10
21.800000
 20
162.400000
  0
VERTEX
  8
ETCHTB
 10
23.800000
 20
163.400000
  0
VERTEX
  8
ETCHTB
 10
30.800000
 20
163.400000
  0
SEQEND
  0
POLYLINE
  8
ETCHTB
 66
     1
 70
     0
 40
0.500000
 41
0.500000
  6
CONTINUOUS
  0
VERTEX
  8
ETCHTB
 10
32.200000
 20
159.400000
  0
VERTEX
  8
ETCHTB
 10
23.800000
 20
159.400000
  0
VERTEX
  8
ETCHTB
 10
21.800000
 20
160.400000
  0
VERTEX
  8
ETCHTB
 10
23.800000
 20
161.400000
  0
VERTEX
  8
ETCHTB
 10
32.200000
 20
161.400000
  0
SEQEND
  0
POLYLINE
  8
ETCHTB
 66
     1
 70
     0
 40
0.500000
 41
0.500000
  6
CONTINUOUS
  0
VERTEX
  8
ETCHTB
 10
32.200000
 20
157.400000
  0
VERTEX
  8
ETCHTB
 10
23.800000
 20
157.400000
  0
VERTEX
  8
ETCHTB
 10
21.800000
 20
158.400000
  0
VERTEX
  8
ETCHTB
 10
23.800000
 20
159.400000
  0
SEQEND
  0
POLYLINE
  8
ETCHTB
 66
     1
 70
     0
 40
0.500000
 41
0.500000
  6
CONTINUOUS
  0
VERTEX
  8
ETCHTB
 10
30.900000
 20
155.400000
  0
VERTEX
  8
ETCHTB
 10
23.800000
 20
155.400000
  0
VERTEX
  8
ETCHTB
 10
21.800000
 20
156.400000
  0
VERTEX
  8
ETCHTB
 10
23.800000
 20
157.400000
  0
SEQEND
  0
POLYLINE
  8
ETCHTB
 66
     1
 70
     0
 40
1.000000
 41
1.000000
  6
CONTINUOUS
  0
VERTEX
  8
ETCHTB
 10
22.800000
 20
161.400000
  0
VERTEX
  8
ETCHTB
 10
21.800000
 20
161.400000
  0
SEQEND
  0
POLYLINE
  8
ETCHTB
 66
     1
 70
     0
 40
1.000000
 41
1.000000
  6
CONTINUOUS
  0
VERTEX
  8
ETCHTB
 10
22.800000
 20
159.400000
  0
VERTEX
  8
ETCHTB
 10
21.800000
 20
159.400000
  0
SEQEND
  0
POLYLINE
  8
ETCHTB
 66
     1
 70
     0
 40
1.000000
 41
1.000000
  6
CONTINUOUS
  0
VERTEX
  8
ETCHTB
 10
22.800000
 20
157.400000
  0
VERTEX
  8
ETCHTB
 10
21.800000
 20
157.400000
  0
SEQEND
  0
POLYLINE
  8
ETCHTB
 66
     1
 70
     0
 40
1.000000
 41
1.000000
  6
CONTINUOUS
  0
VERTEX
  8
ETCHTB
 10
22.800000
 20
155.400000
  0
VERTEX
  8
ETCHTB
 10
21.800000
 20
155.400000
  0
SEQEND
  0
POLYLINE
  8
ETCHTB
 66
     1
 70
     0
 40
1.000000
 41
1.000000
  6
CONTINUOUS
  0
VERTEX
  8
ETCHTB
 10
22.800000
 20
163.400000
  0
VERTEX
  8
ETCHTB
 10
21.800000
 20
163.400000
  0
SEQEND
  0
POLYLINE
  8
ETCHTB
 66
     1
 70
     0
 40
1.000000
 41
1.000000
  6
CONTINUOUS
  0
VERTEX
  8
ETCHTB
 10
55.800000
 20
157.400000
  0
VERTEX
  8
ETCHTB
 10
34.800000
 20
157.400000
  0
SEQEND
  0
POLYLINE
  8
ETCHTB
 66
     1
 70
     0
 40
1.000000
 41
1.000000
  6
CONTINUOUS
  0
VERTEX
  8
ETCHTB
 10
55.800000
 20
159.400000
  0
VERTEX
  8
ETCHTB
 10
34.800000
 20
159.400000
  0
SEQEND
  0
POLYLINE
  8
ETCHTB
 66
     1
 70
     0
 40
1.000000
 41
1.000000
  6
CONTINUOUS
  0
VERTEX
  8
ETCHTB
 10
55.800000
 20
161.400000
  0
VERTEX
  8
ETCHTB
 10
34.800000
 20
161.400000
  0
SEQEND
  0
POLYLINE
  8
ETCHTB
 66
     1
 70
     0
 40
1.000000
 41
1.000000
  6
CONTINUOUS
  0
VERTEX
  8
ETCHTB
 10
68.800000
 20
161.300000
  0
VERTEX
  8
ETCHTB
 10
68.800000
 20
160.300000
  0
VERTEX
  8
ETCHTB
 10
68.600000
 20
160.300000
  0
VERTEX
  8
ETCHTB
 10
68.800000
 20
160.300000
  0
VERTEX
  8
ETCHTB
 10
70.300000
 20
160.300000
  0
VERTEX
  8
ETCHTB
 10
70.300000
 20
161.300000
  0
VERTEX
  8
ETCHTB
 10
68.800000
 20
161.300000
  0
SEQEND
  0
POLYLINE
  8
ETCHTB
 66
     1
 70
     0
 40
1.000000
 41
1.000000
  6
CONTINUOUS
  0
VERTEX
  8
ETCHTB
 10
68.800000
 20
157.500000
  0
VERTEX
  8
ETCHTB
 10
70.300000
 20
157.500000
  0
VERTEX
  8
ETCHTB
 10
70.300000
 20
158.500000
  0
VERTEX
  8
ETCHTB
 10
68.600000
 20
158.500000
  0
VERTEX
  8
ETCHTB
 10
68.800000
 20
158.500000
  0
VERTEX
  8
ETCHTB
 10
68.800000
 20
157.500000
  0
SEQEND
  0
POLYLINE
  8
ETCHTB
 66
     1
 70
     0
 40
1.000000
 41
1.000000
  6
CONTINUOUS
  0
VERTEX
  8
ETCHTB
 10
29.900000
 20
163.900000
  0
VERTEX
  8
ETCHTB
 10
31.000000
 20
163.900000
  0
VERTEX
  8
ETCHTB
 10
31.000000
 20
163.700000
  0
VERTEX
  8
ETCHTB
 10
31.000000
 20
163.900000
  0
VERTEX
  8
ETCHTB
 10
31.000000
 20
165.400000
  0
VERTEX
  8
ETCHTB
 10
30.000000
 20
165.400000
  0
VERTEX
  8
ETCHTB
 10
30.000000
 20
163.900000
  0
SEQEND
  0
POLYLINE
  8
ETCHTB
 66
     1
 70
     0
 40
1.000000
 41
1.000000
  6
CONTINUOUS
  0
VERTEX
  8
ETCHTB
 10
21.900000
 20
154.900000
  0
VERTEX
  8
ETCHTB
 10
30.000000
 20
154.900000
  0
VERTEX
  8
ETCHTB
 10
30.000000
 20
153.400000
  0
VERTEX
  8
ETCHTB
 10
31.000000
 20
153.400000
  0
VERTEX
  8
ETCHTB
 10
31.000000
 20
155.100000
  0
VERTEX
  8
ETCHTB
 10
31.000000
 20
154.900000
  0
VERTEX
  8
ETCHTB
 10
29.900000
 20
154.900000
  0
SEQEND
  0
POLYLINE
  8
ETCHTB
 66
     1
 70
     0
 40
1.000000
 41
1.000000
  6
CONTINUOUS
  0
VERTEX
  8
ETCHTB
 10
33.900000
 20
154.900000
  0
VERTEX
  8
ETCHTB
 10
32.800000
 20
154.900000
  0
VERTEX
  8
ETCHTB
 10
32.800000
 20
155.100000
  0
VERTEX
  8
ETCHTB
 10
32.800000
 20
154.900000
  0
VERTEX
  8
ETCHTB
 10
32.800000
 20
153.400000
  0
VERTEX
  8
ETCHTB
 10
33.800000
 20
153.400000
  0
VERTEX
  8
ETCHTB
 10
33.800000
 20
154.900000
  0
SEQEND
  0
POLYLINE
  8
ETCHTB
 66
     1
 70
     0
 40
1.000000
 41
1.000000
  6
CONTINUOUS
  0
VERTEX
  8
ETCHTB
 10
33.800000
 20
154.900000
  0
VERTEX
  8
ETCHTB
 10
66.300000
 20
154.900000
  0
VERTEX
  8
ETCHTB
 10
68.800000
 20
157.400000
  0
VERTEX
  8
ETCHTB
 10
68.800000
 20
158.400000
  0
SEQEND
  0
POLYLINE
  8
ETCHTB
 66
     1
 70
     0
 40
1.000000
 41
1.000000
  6
CONTINUOUS
  0
VERTEX
  8
ETCHTB
 10
68.800000
 20
160.400000
  0
VERTEX
  8
ETCHTB
 10
68.800000
 20
161.400000
  0
VERTEX
  8
ETCHTB
 10
66.300000
 20
163.900000
  0
VERTEX
  8
ETCHTB
 10
33.800000
 20
163.900000
  0
VERTEX
  8
ETCHTB
 10
33.800000
 20
165.400000
  0
VERTEX
  8
ETCHTB
 10
32.800000
 20
165.400000
  0
VERTEX
  8
ETCHTB
 10
32.800000
 20
163.700000
  0
VERTEX
  8
ETCHTB
 10
32.800000
 20
163.900000
  0
VERTEX
  8
ETCHTB
 10
33.800000
 20
163.900000
  0
SEQEND
  0
POLYLINE
  8
ETCHTB
 66
     1
 70
     0
 40
1.000000
 41
1.000000
  6
CONTINUOUS
  0
VERTEX
  8
ETCHTB
 10
30.000000
 20
163.900000
  0
VERTEX
  8
ETCHTB
 10
21.800000
 20
163.900000
  0
VERTEX
  8
ETCHTB
 10
21.800000
 20
161.400000
  0
VERTEX
  8
ETCHTB
 10
21.800000
 20
157.400000
  0
VERTEX
  8
ETCHTB
 10
21.800000
 20
154.900000
  0
SEQEND
  0
POLYLINE
  8
ETCHTB
 66
     1
 70
     0
 40
1.000000
 41
1.000000
  6
CONTINUOUS
  0
VERTEX
  8
ETCHTB
 10
14.400000
 20
178.100000
  0
VERTEX
  8
ETCHTB
 10
12.900000
 20
178.100000
  0
VERTEX
  8
ETCHTB
 10
12.900000
 20
177.100000
  0
VERTEX
  8
ETCHTB
 10
14.600000
 20
177.100000
  0
VERTEX
  8
ETCHTB
 10
14.400000
 20
177.100000
  0
VERTEX
  8
ETCHTB
 10
14.400000
 20
178.100000
  0
SEQEND
  0
POLYLINE
  8
ETCHTB
 66
     1
 70
     0
 40
1.000000
 41
1.000000
  6
CONTINUOUS
  0
VERTEX
  8
ETCHTB
 10
14.400000
 20
174.300000
  0
VERTEX
  8
ETCHTB
 10
14.400000
 20
175.300000
  0
VERTEX
  8
ETCHTB
 10
14.600000
 20
175.300000
  0
VERTEX
  8
ETCHTB
 10
14.400000
 20
175.300000
  0
VERTEX
  8
ETCHTB
 10
12.900000
 20
175.300000
  0
VERTEX
  8
ETCHTB
 10
12.900000
 20
174.300000
  0
VERTEX
  8
ETCHTB
 10
14.400000
 20
174.300000
  0
SEQEND
  0
POLYLINE
  8
ETCHTB
 66
     1
 70
     0
 40
1.000000
 41
1.000000
  6
CONTINUOUS
  0
VERTEX
  8
ETCHTB
 10
14.200000
 20
121.600000
  0
VERTEX
  8
ETCHTB
 10
12.700000
 20
121.600000
  0
VERTEX
  8
ETCHTB
 10
12.700000
 20
120.600000
  0
VERTEX
  8
ETCHTB
 10
14.400000
 20
120.600000
  0
VERTEX
  8
ETCHTB
 10
14.200000
 20
120.600000
  0
VERTEX
  8
ETCHTB
 10
14.200000
 20
121.600000
  0
SEQEND
  0
POLYLINE
  8
ETCHTB
 66
     1
 70
     0
 40
1.000000
 41
1.000000
  6
CONTINUOUS
  0
VERTEX
  8
ETCHTB
 10
14.200000
 20
117.800000
  0
VERTEX
  8
ETCHTB
 10
14.200000
 20
118.800000
  0
VERTEX
  8
ETCHTB
 10
14.400000
 20
118.800000
  0
VERTEX
  8
ETCHTB
 10
14.200000
 20
118.800000
  0
VERTEX
  8
ETCHTB
 10
12.700000
 20
118.800000
  0
VERTEX
  8
ETCHTB
 10
12.700000
 20
117.800000
  0
VERTEX
  8
ETCHTB
 10
14.200000
 20
117.800000
  0
SEQEND
  0
POLYLINE
  8
ETCHTB
 66
     1
 70
     0
 40
1.000000
 41
1.000000
  6
CONTINUOUS
  0
VERTEX
  8
ETCHTB
 10
14.200000
 20
205.100000
  0
VERTEX
  8
ETCHTB
 10
12.700000
 20
205.100000
  0
VERTEX
  8
ETCHTB
 10
12.700000
 20
204.100000
  0
VERTEX
  8
ETCHTB
 10
14.400000
 20
204.100000
  0
VERTEX
  8
ETCHTB
 10
14.200000
 20
204.100000
  0
VERTEX
  8
ETCHTB
 10
14.200000
 20
205.100000
  0
SEQEND
  0
POLYLINE
  8
ETCHTB
 66
     1
 70
     0
 40
1.000000
 41
1.000000
  6
CONTINUOUS
  0
VERTEX
  8
ETCHTB
 10
14.200000
 20
201.300000
  0
VERTEX
  8
ETCHTB
 10
14.200000
 20
202.300000
  0
VERTEX
  8
ETCHTB
 10
14.400000
 20
202.300000
  0
VERTEX
  8
ETCHTB
 10
14.200000
 20
202.300000
  0
VERTEX
  8
ETCHTB
 10
12.700000
 20
202.300000
  0
VERTEX
  8
ETCHTB
 10
12.700000
 20
201.300000
  0
VERTEX
  8
ETCHTB
 10
14.200000
 20
201.300000
  0
SEQEND
  0
POLYLINE
  8
ETCHTB
 66
     1
 70
     0
 40
1.000000
 41
1.000000
  6
CONTINUOUS
  0
VERTEX
  8
ETCHTB
 10
14.200000
 20
162.000000
  0
VERTEX
  8
ETCHTB
 10
12.700000
 20
162.000000
  0
VERTEX
  8
ETCHTB
 10
12.700000
 20
161.000000
  0
VERTEX
  8
ETCHTB
 10
14.400000
 20
161.000000
  0
VERTEX
  8
ETCHTB
 10
14.200000
 20
161.000000
  0
VERTEX
  8
ETCHTB
 10
14.200000
 20
162.000000
  0
SEQEND
  0
POLYLINE
  8
ETCHTB
 66
     1
 70
     0
 40
1.000000
 41
1.000000
  6
CONTINUOUS
  0
VERTEX
  8
ETCHTB
 10
14.200000
 20
158.200000
  0
VERTEX
  8
ETCHTB
 10
14.200000
 20
159.200000
  0
VERTEX
  8
ETCHTB
 10
14.400000
 20
159.200000
  0
VERTEX
  8
ETCHTB
 10
14.200000
 20
159.200000
  0
VERTEX
  8
ETCHTB
 10
12.700000
 20
159.200000
  0
VERTEX
  8
ETCHTB
 10
12.700000
 20
158.200000
  0
VERTEX
  8
ETCHTB
 10
14.200000
 20
158.200000
  0
SEQEND
  0
POLYLINE
  8
ETCHTB
 66
     1
 70
     0
 40
1.000000
 41
1.000000
  6
CONTINUOUS
  0
VERTEX
  8
ETCHTB
 10
76.800000
 20
205.100000
  0
VERTEX
  8
ETCHTB
 10
76.800000
 20
204.100000
  0
VERTEX
  8
ETCHTB
 10
76.600000
 20
204.100000
  0
VERTEX
  8
ETCHTB
 10
76.800000
 20
204.100000
  0
VERTEX
  8
ETCHTB
 10
78.300000
 20
204.100000
  0
VERTEX
  8
ETCHTB
 10
78.300000
 20
205.100000
  0
VERTEX
  8
ETCHTB
 10
76.800000
 20
205.100000
  0
SEQEND
  0
POLYLINE
  8
ETCHTB
 66
     1
 70
     0
 40
1.000000
 41
1.000000
  6
CONTINUOUS
  0
VERTEX
  8
ETCHTB
 10
76.800000
 20
201.300000
  0
VERTEX
  8
ETCHTB
 10
78.300000
 20
201.300000
  0
VERTEX
  8
ETCHTB
 10
78.300000
 20
202.300000
  0
VERTEX
  8
ETCHTB
 10
76.600000
 20
202.300000
  0
VERTEX
  8
ETCHTB
 10
76.800000
 20
202.300000
  0
VERTEX
  8
ETCHTB
 10
76.800000
 20
201.300000
  0
SEQEND
  0
POLYLINE
  8
ETCHTB
 66
     1
 70
     0
 40
1.000000
 41
1.000000
  6
CONTINUOUS
  0
VERTEX
  8
ETCHTB
 10
78.800000
 20
162.000000
  0
VERTEX
  8
ETCHTB
 10
78.800000
 20
161.000000
  0
VERTEX
  8
ETCHTB
 10
78.600000
 20
161.000000
  0
VERTEX
  8
ETCHTB
 10
78.800000
 20
161.000000
  0
VERTEX
  8
ETCHTB
 10
80.300000
 20
161.000000
  0
VERTEX
  8
ETCHTB
 10
80.300000
 20
162.000000
  0
VERTEX
  8
ETCHTB
 10
78.800000
 20
162.000000
  0
SEQEND
  0
POLYLINE
  8
ETCHTB
 66
     1
 70
     0
 40
1.000000
 41
1.000000
  6
CONTINUOUS
  0
VERTEX
  8
ETCHTB
 10
78.800000
 20
158.200000
  0
VERTEX
  8
ETCHTB
 10
80.300000
 20
158.200000
  0
VERTEX
  8
ETCHTB
 10
80.300000
 20
159.200000
  0
VERTEX
  8
ETCHTB
 10
78.600000
 20
159.200000
  0
VERTEX
  8
ETCHTB
 10
78.800000
 20
159.200000
  0
VERTEX
  8
ETCHTB
 10
78.800000
 20
158.200000
  0
SEQEND
  0
POLYLINE
  8
ETCHTB
 66
     1
 70
     0
 40
1.000000
 41
1.000000
  6
CONTINUOUS
  0
VERTEX
  8
ETCHTB
 10
78.800000
 20
122.600000
  0
VERTEX
  8
ETCHTB
 10
78.800000
 20
121.600000
  0
VERTEX
  8
ETCHTB
 10
78.600000
 20
121.600000
  0
VERTEX
  8
ETCHTB
 10
78.800000
 20
121.600000
  0
VERTEX
  8
ETCHTB
 10
80.300000
 20
121.600000
  0
VERTEX
  8
ETCHTB
 10
80.300000
 20
122.600000
  0
VERTEX
  8
ETCHTB
 10
78.800000
 20
122.600000
  0
SEQEND
  0
POLYLINE
  8
ETCHTB
 66
     1
 70
     0
 40
1.000000
 41
1.000000
  6
CONTINUOUS
  0
VERTEX
  8
ETCHTB
 10
78.800000
 20
118.800000
  0
VERTEX
  8
ETCHTB
 10
80.300000
 20
118.800000
  0
VERTEX
  8
ETCHTB
 10
80.300000
 20
119.800000
  0
VERTEX
  8
ETCHTB
 10
78.600000
 20
119.800000
  0
VERTEX
  8
ETCHTB
 10
78.800000
 20
119.800000
  0
VERTEX
  8
ETCHTB
 10
78.800000
 20
118.800000
  0
SEQEND
  0
POLYLINE
  8
ETCHTB
 66
     1
 70
     0
 40
1.000000
 41
1.000000
  6
CONTINUOUS
  0
VERTEX
  8
ETCHTB
 10
50.200000
 20
142.500000
  0
VERTEX
  8
ETCHTB
 10
50.200000
 20
141.500000
  0
VERTEX
  8
ETCHTB
 10
50.000000
 20
141.500000
  0
VERTEX
  8
ETCHTB
 10
50.200000
 20
141.500000
  0
VERTEX
  8
ETCHTB
 10
51.700000
 20
141.500000
  0
VERTEX
  8
ETCHTB
 10
51.700000
 20
142.500000
  0
VERTEX
  8
ETCHTB
 10
50.200000
 20
142.500000
  0
SEQEND
  0
POLYLINE
  8
ETCHTB
 66
     1
 70
     0
 40
1.000000
 41
1.000000
  6
CONTINUOUS
  0
VERTEX
  8
ETCHTB
 10
50.200000
 20
138.700000
  0
VERTEX
  8
ETCHTB
 10
51.700000
 20
138.700000
  0
VERTEX
  8
ETCHTB
 10
51.700000
 20
139.700000
  0
VERTEX
  8
ETCHTB
 10
50.000000
 20
139.700000
  0
VERTEX
  8
ETCHTB
 10
50.200000
 20
139.700000
  0
VERTEX
  8
ETCHTB
 10
50.200000
 20
138.700000
  0
SEQEND
  0
POLYLINE
  8
ETCHTB
 66
     1
 70
     0
 40
1.000000
 41
1.000000
  6
CONTINUOUS
  0
VERTEX
  8
ETCHTB
 10
71.200000
 20
172.600000
  0
VERTEX
  8
ETCHTB
 10
70.200000
 20
172.600000
  0
VERTEX
  8
ETCHTB
 10
70.200000
 20
172.800000
  0
VERTEX
  8
ETCHTB
 10
70.200000
 20
172.600000
  0
VERTEX
  8
ETCHTB
 10
70.200000
 20
171.100000
  0
VERTEX
  8
ETCHTB
 10
71.200000
 20
171.100000
  0
VERTEX
  8
ETCHTB
 10
71.200000
 20
172.600000
  0
SEQEND
  0
POLYLINE
  8
ETCHTB
 66
     1
 70
     0
 40
1.000000
 41
1.000000
  6
CONTINUOUS
  0
VERTEX
  8
ETCHTB
 10
67.400000
 20
172.600000
  0
VERTEX
  8
ETCHTB
 10
67.400000
 20
171.100000
  0
VERTEX
  8
ETCHTB
 10
68.400000
 20
171.100000
  0
VERTEX
  8
ETCHTB
 10
68.400000
 20
172.800000
  0
VERTEX
  8
ETCHTB
 10
68.400000
 20
172.600000
  0
VERTEX
  8
ETCHTB
 10
67.400000
 20
172.600000
  0
SEQEND
  0
POLYLINE
  8
ETCHTB
 66
     1
 70
     0
 40
1.000000
 41
1.000000
  6
CONTINUOUS
  0
VERTEX
  8
ETCHTB
 10
47.600000
 20
197.700000
  0
VERTEX
  8
ETCHTB
 10
46.600000
 20
197.700000
  0
VERTEX
  8
ETCHTB
 10
46.600000
 20
197.900000
  0
VERTEX
  8
ETCHTB
 10
46.600000
 20
197.700000
  0
VERTEX
  8
ETCHTB
 10
46.600000
 20
196.200000
  0
VERTEX
  8
ETCHTB
 10
47.600000
 20
196.200000
  0
VERTEX
  8
ETCHTB
 10
47.600000
 20
197.700000
  0
SEQEND
  0
POLYLINE
  8
ETCHTB
 66
     1
 70
     0
 40
1.000000
 41
1.000000
  6
CONTINUOUS
  0
VERTEX
  8
ETCHTB
 10
43.800000
 20
197.700000
  0
VERTEX
  8
ETCHTB
 10
43.800000
 20
196.200000
  0
VERTEX
  8
ETCHTB
 10
44.800000
 20
196.200000
  0
VERTEX
  8
ETCHTB
 10
44.800000
 20
197.900000
  0
VERTEX
  8
ETCHTB
 10
44.800000
 20
197.700000
  0
VERTEX
  8
ETCHTB
 10
43.800000
 20
197.700000
  0
SEQEND
  0
POLYLINE
  8
ETCHTB
 66
     1
 70
     0
 40
1.000000
 41
1.000000
  6
CONTINUOUS
  0
VERTEX
  8
ETCHTB
 10
67.400000
 20
191.200000
  0
VERTEX
  8
ETCHTB
 10
68.400000
 20
191.200000
  0
VERTEX
  8
ETCHTB
 10
68.400000
 20
191.000000
  0
VERTEX
  8
ETCHTB
 10
68.400000
 20
191.200000
  0
VERTEX
  8
ETCHTB
 10
68.400000
 20
192.700000
  0
VERTEX
  8
ETCHTB
 10
67.400000
 20
192.700000
  0
VERTEX
  8
ETCHTB
 10
67.400000
 20
191.200000
  0
SEQEND
  0
POLYLINE
  8
ETCHTB
 66
     1
 70
     0
 40
1.000000
 41
1.000000
  6
CONTINUOUS
  0
VERTEX
  8
ETCHTB
 10
71.200000
 20
191.200000
  0
VERTEX
  8
ETCHTB
 10
71.200000
 20
192.700000
  0
VERTEX
  8
ETCHTB
 10
70.200000
 20
192.700000
  0
VERTEX
  8
ETCHTB
 10
70.200000
 20
191.000000
  0
VERTEX
  8
ETCHTB
 10
70.200000
 20
191.200000
  0
VERTEX
  8
ETCHTB
 10
71.200000
 20
191.200000
  0
SEQEND
  0
POLYLINE
  8
ETCHTB
 66
     1
 70
     0
 40
0.400000
 41
0.400000
  6
CONTINUOUS
  0
VERTEX
  8
ETCHTB
 10
19.300000
 20
138.800000
  0
VERTEX
  8
ETCHTB
 10
19.300000
 20
152.200000
  0
VERTEX
  8
ETCHTB
 10
19.200000
 20
152.400000
  0
VERTEX
  8
ETCHTB
 10
19.200000
 20
162.400000
  0
SEQEND
  0
POLYLINE
  8
ETCHTB
 66
     1
 70
     0
 40
0.400000
 41
0.400000
  6
CONTINUOUS
  0
VERTEX
  8
ETCHTB
 10
19.300000
 20
132.400000
  0
VERTEX
  8
ETCHTB
 10
19.300000
 20
140.600000
  0
SEQEND
  0
POLYLINE
  8
ETCHTB
 66
     1
 70
     0
 40
0.400000
 41
0.400000
  6
CONTINUOUS
  0
VERTEX
  8
ETCHTB
 10
78.500000
 20
132.400000
  0
VERTEX
  8
ETCHTB
 10
78.500000
 20
140.600000
  0
SEQEND
  0
POLYLINE
  8
ETCHTB
 66
     1
 70
     0
 40
0.400000
 41
0.400000
  6
CONTINUOUS
  0
VERTEX
  8
ETCHTB
 10
78.500000
 20
138.800000
  0
VERTEX
  8
ETCHTB
 10
78.500000
 20
159.200000
  0
SEQEND
  0
POLYLINE
  8
ETCHTB
 66
     1
 70
     0
 40
0.400000
 41
0.400000
  6
CONTINUOUS
  0
VERTEX
  8
ETCHTB
 10
19.200000
 20
162.400000
  0
VERTEX
  8
ETCHTB
 10
19.300000
 20
162.500000
  0
VERTEX
  8
ETCHTB
 10
19.300000
 20
166.000000
  0
SEQEND
  0
POLYLINE
  8
ETCHTB
 66
     1
 70
     0
 40
0.400000
 41
0.400000
  6
CONTINUOUS
  0
VERTEX
  8
ETCHTB
 10
78.500000
 20
161.000000
  0
VERTEX
  8
ETCHTB
 10
78.500000
 20
166.000000
  0
SEQEND
  0
POLYLINE
  8
ETCHTB
 66
     1
 70
     0
 40
0.400000
 41
0.400000
  6
CONTINUOUS
  0
VERTEX
  8
ETCHTB
 10
14.500000
 20
140.600000
  0
VERTEX
  8
ETCHTB
 10
14.500000
 20
132.400000
  0
SEQEND
  0
POLYLINE
  8
ETCHTB
 66
     1
 70
     0
 40
0.400000
 41
0.400000
  6
CONTINUOUS
  0
VERTEX
  8
ETCHTB
 10
14.500000
 20
166.000000
  0
VERTEX
  8
ETCHTB
 10
14.500000
 20
161.000000
  0
SEQEND
  0
POLYLINE
  8
ETCHTB
 66
     1
 70
     0
 40
0.400000
 41
0.400000
  6
CONTINUOUS
  0
VERTEX
  8
ETCHTB
 10
73.700000
 20
166.000000
  0
VERTEX
  8
ETCHTB
 10
73.700000
 20
139.300000
  0
SEQEND
  0
POLYLINE
  8
ETCHTB
 66
     1
 70
     0
 40
0.400000
 41
0.400000
  6
CONTINUOUS
  0
VERTEX
  8
ETCHTB
 10
73.700000
 20
140.600000
  0
VERTEX
  8
ETCHTB
 10
73.700000
 20
132.400000
  0
SEQEND
  0
POLYLINE
  8
ETCHTB
 66
     1
 70
     0
 40
0.400000
 41
0.400000
  6
CONTINUOUS
  0
VERTEX
  8
ETCHTB
 10
73.700000
 20
132.400000
  0
VERTEX
  8
ETCHTB
 10
49.900000
 20
132.400000
  0
VERTEX
  8
ETCHTB
 10
49.900000
 20
133.100000
  0
SEQEND
  0
POLYLINE
  8
ETCHTB
 66
     1
 70
     0
 40
0.400000
 41
0.400000
  6
CONTINUOUS
  0
VERTEX
  8
ETCHTB
 10
49.900000
 20
133.100000
  0
VERTEX
  8
ETCHTB
 10
49.900000
 20
139.700000
  0
SEQEND
  0
POLYLINE
  8
ETCHTB
 66
     1
 70
     0
 40
0.400000
 41
0.400000
  6
CONTINUOUS
  0
VERTEX
  8
ETCHTB
 10
49.900000
 20
141.500000
  0
VERTEX
  8
ETCHTB
 10
49.900000
 20
150.800000
  0
SEQEND
  0
POLYLINE
  8
ETCHTB
 66
     1
 70
     0
 40
0.400000
 41
0.400000
  6
CONTINUOUS
  0
VERTEX
  8
ETCHTB
 10
43.100000
 20
150.800000
  0
VERTEX
  8
ETCHTB
 10
43.100000
 20
132.700000
  0
SEQEND
  0
POLYLINE
  8
ETCHTB
 66
     1
 70
     0
 40
0.400000
 41
0.400000
  6
CONTINUOUS
  0
VERTEX
  8
ETCHTB
 10
43.100000
 20
133.000000
  0
VERTEX
  8
ETCHTB
 10
43.100000
 20
132.400000
  0
VERTEX
  8
ETCHTB
 10
19.300000
 20
132.400000
  0
VERTEX
  8
ETCHTB
 10
19.300000
 20
132.900000
  0
SEQEND
  0
POLYLINE
  8
ETCHTB
 66
     1
 70
     0
 40
0.400000
 41
0.400000
  6
CONTINUOUS
  0
VERTEX
  8
ETCHTB
 10
19.300000
 20
132.700000
  0
VERTEX
  8
ETCHTB
 10
19.300000
 20
150.800000
  0
SEQEND
  0
POLYLINE
  8
ETCHTB
 66
     1
 70
     0
 40
0.400000
 41
0.400000
  6
CONTINUOUS
  0
VERTEX
  8
ETCHTB
 10
14.500000
 20
159.300000
  0
VERTEX
  8
ETCHTB
 10
14.500000
 20
132.700000
  0
SEQEND
  0
POLYLINE
  8
ETCHTB
 66
     1
 70
     0
 40
0.400000
 41
0.400000
  6
CONTINUOUS
  0
VERTEX
  8
ETCHTB
 10
14.500000
 20
132.900000
  0
VERTEX
  8
ETCHTB
 10
14.500000
 20
132.400000
  0
VERTEX
  8
ETCHTB
 10
14.500000
 20
120.600000
  0
SEQEND
  0
POLYLINE
  8
ETCHTB
 66
     1
 70
     0
 40
0.400000
 41
0.400000
  6
CONTINUOUS
  0
VERTEX
  8
ETCHTB
 10
14.500000
 20
118.800000
  0
VERTEX
  8
ETCHTB
 10
14.500000
 20
116.400000
  0
SEQEND
  0
POLYLINE
  8
ETCHTB
 66
     1
 70
     0
 40
0.400000
 41
0.400000
  6
CONTINUOUS
  0
VERTEX
  8
ETCHTB
 10
19.300000
 20
116.400000
  0
VERTEX
  8
ETCHTB
 10
43.100000
 20
116.400000
  0
SEQEND
  0
POLYLINE
  8
ETCHTB
 66
     1
 70
     0
 40
0.400000
 41
0.400000
  6
CONTINUOUS
  0
VERTEX
  8
ETCHTB
 10
49.900000
 20
116.400000
  0
VERTEX
  8
ETCHTB
 10
73.700000
 20
116.400000
  0
SEQEND
  0
POLYLINE
  8
ETCHTB
 66
     1
 70
     0
 40
0.400000
 41
0.400000
  6
CONTINUOUS
  0
VERTEX
  8
ETCHTB
 10
78.500000
 20
116.400000
  0
VERTEX
  8
ETCHTB
 10
78.500000
 20
119.800000
  0
SEQEND
  0
POLYLINE
  8
ETCHTB
 66
     1
 70
     0
 40
0.400000
 41
0.400000
  6
CONTINUOUS
  0
VERTEX
  8
ETCHTB
 10
78.500000
 20
121.600000
  0
VERTEX
  8
ETCHTB
 10
78.500000
 20
132.400000
  0
SEQEND
  0
POLYLINE
  8
ETCHTB
 66
     1
 70
     0
 40
0.400000
 41
0.400000
  6
CONTINUOUS
  0
VERTEX
  8
ETCHTB
 10
47.900000
 20
206.400000
  0
VERTEX
  8
ETCHTB
 10
44.000000
 20
206.400000
  0
SEQEND
  0
POLYLINE
  8
ETCHTB
 66
     1
 70
     0
 40
0.400000
 41
0.400000
  6
CONTINUOUS
  0
VERTEX
  8
ETCHTB
 10
48.000000
 20
200.000000
  0
VERTEX
  8
ETCHTB
 10
44.100000
 20
200.000000
  0
SEQEND
  0
POLYLINE
  8
ETCHTB
 66
     1
 70
     0
 40
0.400000
 41
0.400000
  6
CONTINUOUS
  0
VERTEX
  8
ETCHTB
 10
44.800000
 20
200.600000
  0
VERTEX
  8
ETCHTB
 10
44.600000
 20
200.400000
  0
VERTEX
  8
ETCHTB
 10
44.900000
 20
200.400000
  0
VERTEX
  8
ETCHTB
 10
45.100000
 20
200.200000
  0
VERTEX
  8
ETCHTB
 10
44.500000
 20
200.200000
  0
SEQEND
  0
POLYLINE
  8
ETCHTB
 66
     1
 70
     0
 40
0.400000
 41
0.400000
  6
CONTINUOUS
  0
VERTEX
  8
ETCHTB
 10
44.800000
 20
205.800000
  0
VERTEX
  8
ETCHTB
 10
44.500000
 20
206.000000
  0
VERTEX
  8
ETCHTB
 10
45.000000
 20
206.000000
  0
VERTEX
  8
ETCHTB
 10
45.200000
 20
206.200000
  0
VERTEX
  8
ETCHTB
 10
44.300000
 20
206.200000
  0
SEQEND
  0
POLYLINE
  8
ETCHTB
 66
     1
 70
     0
 40
0.400000
 41
0.400000
  6
CONTINUOUS
  0
VERTEX
  8
ETCHTB
 10
72.100000
 20
200.300000
  0
VERTEX
  8
ETCHTB
 10
71.300000
 20
200.300000
  0
VERTEX
  8
ETCHTB
 10
71.300000
 20
200.000000
  0
VERTEX
  8
ETCHTB
 10
72.500000
 20
200.000000
  0
SEQEND
  0
POLYLINE
  8
ETCHTB
 66
     1
 70
     0
 40
0.400000
 41
0.400000
  6
CONTINUOUS
  0
VERTEX
  8
ETCHTB
 10
72.000000
 20
206.100000
  0
VERTEX
  8
ETCHTB
 10
71.300000
 20
206.100000
  0
VERTEX
  8
ETCHTB
 10
71.300000
 20
206.400000
  0
VERTEX
  8
ETCHTB
 10
72.500000
 20
206.400000
  0
SEQEND
  0
POLYLINE
  8
ETCHTB
 66
     1
 70
     0
 40
0.400000
 41
0.400000
  6
CONTINUOUS
  0
VERTEX
  8
ETCHTB
 10
17.900000
 20
206.100000
  0
VERTEX
  8
ETCHTB
 10
17.500000
 20
206.100000
  0
VERTEX
  8
ETCHTB
 10
17.300000
 20
206.400000
  0
VERTEX
  8
ETCHTB
 10
18.500000
 20
206.400000
  0
SEQEND
  0
POLYLINE
  8
ETCHTB
 66
     1
 70
     0
 40
0.400000
 41
0.400000
  6
CONTINUOUS
  0
VERTEX
  8
ETCHTB
 10
18.000000
 20
200.300000
  0
VERTEX
  8
ETCHTB
 10
17.400000
 20
200.300000
  0
VERTEX
  8
ETCHTB
 10
17.300000
 20
200.000000
  0
VERTEX
  8
ETCHTB
 10
18.500000
 20
200.000000
  0
SEQEND
  0
POLYLINE
  8
ETCHTB
 66
     1
 70
     0
 40
0.400000
 41
0.400000
  6
CONTINUOUS
  0
VERTEX
  8
ETCHTB
 10
49.900000
 20
150.800000
  0
VERTEX
  8
ETCHTB
 10
47.900000
 20
150.800000
  0
VERTEX
  8
ETCHTB
 10
47.900000
 20
150.400000
  0
VERTEX
  8
ETCHTB
 10
47.000000
 20
150.400000
  0
VERTEX
  8
ETCHTB
 10
47.000000
 20
149.400000
  0
VERTEX
  8
ETCHTB
 10
46.000000
 20
149.400000
  0
VERTEX
  8
ETCHTB
 10
46.000000
 20
150.400000
  0
VERTEX
  8
ETCHTB
 10
45.100000
 20
150.400000
  0
VERTEX
  8
ETCHTB
 10
45.100000
 20
150.800000
  0
VERTEX
  8
ETCHTB
 10
43.100000
 20
150.800000
  0
SEQEND
  0
POLYLINE
  8
ETCHTB
 66
     1
 70
     0
 40
0.400000
 41
0.400000
  6
CONTINUOUS
  0
VERTEX
  8
ETCHTB
 10
78.500000
 20
166.000000
  0
VERTEX
  8
ETCHTB
 10
77.500000
 20
166.000000
  0
VERTEX
  8
ETCHTB
 10
77.500000
 20
165.600000
  0
VERTEX
  8
ETCHTB
 10
76.600000
 20
165.600000
  0
VERTEX
  8
ETCHTB
 10
76.600000
 20
164.600000
  0
VERTEX
  8
ETCHTB
 10
75.600000
 20
164.600000
  0
VERTEX
  8
ETCHTB
 10
75.600000
 20
165.600000
  0
VERTEX
  8
ETCHTB
 10
74.700000
 20
165.600000
  0
VERTEX
  8
ETCHTB
 10
74.700000
 20
166.000000
  0
VERTEX
  8
ETCHTB
 10
73.700000
 20
166.000000
  0
SEQEND
  0
POLYLINE
  8
ETCHTB
 66
     1
 70
     0
 40
0.400000
 41
0.400000
  6
CONTINUOUS
  0
VERTEX
  8
ETCHTB
 10
19.300000
 20
166.000000
  0
VERTEX
  8
ETCHTB
 10
18.300000
 20
166.000000
  0
VERTEX
  8
ETCHTB
 10
18.300000
 20
165.600000
  0
VERTEX
  8
ETCHTB
 10
17.400000
 20
165.600000
  0
VERTEX
  8
ETCHTB
 10
17.400000
 20
164.600000
  0
VERTEX
  8
ETCHTB
 10
16.400000
 20
164.600000
  0
VERTEX
  8
ETCHTB
 10
16.400000
 20
165.600000
  0
VERTEX
  8
ETCHTB
 10
15.500000
 20
165.600000
  0
VERTEX
  8
ETCHTB
 10
15.500000
 20
166.000000
  0
VERTEX
  8
ETCHTB
 10
14.500000
 20
166.000000
  0
SEQEND
  0
POLYLINE
  8
ETCHTB
 66
     1
 70
     0
 40
0.400000
 41
0.400000
  6
CONTINUOUS
  0
VERTEX
  8
ETCHTB
 10
43.100000
 20
116.400000
  0
VERTEX
  8
ETCHTB
 10
43.100000
 20
114.800000
  0
VERTEX
  8
ETCHTB
 10
44.900000
 20
114.800000
  0
VERTEX
  8
ETCHTB
 10
44.900000
 20
114.400000
  0
VERTEX
  8
ETCHTB
 10
45.700000
 20
114.400000
  0
VERTEX
  8
ETCHTB
 10
45.700000
 20
115.100000
  0
VERTEX
  8
ETCHTB
 10
45.700000
 20
113.600000
  0
VERTEX
  8
ETCHTB
 10
44.900000
 20
113.600000
  0
VERTEX
  8
ETCHTB
 10
44.900000
 20
112.500000
  0
VERTEX
  8
ETCHTB
 10
47.300000
 20
112.500000
  0
VERTEX
  8
ETCHTB
 10
48.100000
 20
112.500000
  0
VERTEX
  8
ETCHTB
 10
48.100000
 20
113.600000
  0
VERTEX
  8
ETCHTB
 10
47.300000
 20
113.600000
  0
VERTEX
  8
ETCHTB
 10
47.300000
 20
115.100000
  0
VERTEX
  8
ETCHTB
 10
47.300000
 20
114.400000
  0
VERTEX
  8
ETCHTB
 10
48.100000
 20
114.400000
  0
VERTEX
  8
ETCHTB
 10
48.100000
 20
114.800000
  0
VERTEX
  8
ETCHTB
 10
48.500000
 20
114.800000
  0
VERTEX
  8
ETCHTB
 10
49.900000
 20
114.800000
  0
VERTEX
  8
ETCHTB
 10
49.900000
 20
116.400000
  0
SEQEND
  0
POLYLINE
  8
ETCHTB
 66
     1
 70
     0
 40
0.400000
 41
0.400000
  6
CONTINUOUS
  0
VERTEX
  8
ETCHTB
 10
73.700000
 20
116.400000
  0
VERTEX
  8
ETCHTB
 10
73.700000
 20
114.800000
  0
VERTEX
  8
ETCHTB
 10
74.500000
 20
114.800000
  0
VERTEX
  8
ETCHTB
 10
74.500000
 20
114.400000
  0
VERTEX
  8
ETCHTB
 10
75.300000
 20
114.400000
  0
VERTEX
  8
ETCHTB
 10
75.300000
 20
115.100000
  0
VERTEX
  8
ETCHTB
 10
75.300000
 20
113.600000
  0
VERTEX
  8
ETCHTB
 10
74.500000
 20
113.600000
  0
VERTEX
  8
ETCHTB
 10
74.500000
 20
112.500000
  0
VERTEX
  8
ETCHTB
 10
76.900000
 20
112.500000
  0
VERTEX
  8
ETCHTB
 10
77.700000
 20
112.500000
  0
VERTEX
  8
ETCHTB
 10
77.700000
 20
113.600000
  0
VERTEX
  8
ETCHTB
 10
76.900000
 20
113.600000
  0
VERTEX
  8
ETCHTB
 10
76.900000
 20
115.100000
  0
VERTEX
  8
ETCHTB
 10
76.900000
 20
114.400000
  0
VERTEX
  8
ETCHTB
 10
77.700000
 20
114.400000
  0
VERTEX
  8
ETCHTB
 10
77.700000
 20
114.800000
  0
VERTEX
  8
ETCHTB
 10
78.100000
 20
114.800000
  0
VERTEX
  8
ETCHTB
 10
78.500000
 20
114.800000
  0
VERTEX
  8
ETCHTB
 10
78.500000
 20
116.400000
  0
SEQEND
  0
POLYLINE
  8
ETCHTB
 66
     1
 70
     0
 40
0.400000
 41
0.400000
  6
CONTINUOUS
  0
VERTEX
  8
ETCHTB
 10
14.500000
 20
116.400000
  0
VERTEX
  8
ETCHTB
 10
14.500000
 20
114.800000
  0
VERTEX
  8
ETCHTB
 10
15.300000
 20
114.800000
  0
VERTEX
  8
ETCHTB
 10
15.300000
 20
114.400000
  0
VERTEX
  8
ETCHTB
 10
16.100000
 20
114.400000
  0
VERTEX
  8
ETCHTB
 10
16.100000
 20
115.100000
  0
VERTEX
  8
ETCHTB
 10
16.100000
 20
113.600000
  0
VERTEX
  8
ETCHTB
 10
15.300000
 20
113.600000
  0
VERTEX
  8
ETCHTB
 10
15.300000
 20
112.500000
  0
VERTEX
  8
ETCHTB
 10
17.700000
 20
112.500000
  0
VERTEX
  8
ETCHTB
 10
18.500000
 20
112.500000
  0
VERTEX
  8
ETCHTB
 10
18.500000
 20
113.600000
  0
VERTEX
  8
ETCHTB
 10
17.700000
 20
113.600000
  0
VERTEX
  8
ETCHTB
 10
17.700000
 20
115.100000
  0
VERTEX
  8
ETCHTB
 10
17.700000
 20
114.400000
  0
VERTEX
  8
ETCHTB
 10
18.500000
 20
114.400000
  0
VERTEX
  8
ETCHTB
 10
18.500000
 20
114.800000
  0
VERTEX
  8
ETCHTB
 10
18.900000
 20
114.800000
  0
VERTEX
  8
ETCHTB
 10
19.300000
 20
114.800000
  0
VERTEX
  8
ETCHTB
 10
19.300000
 20
116.400000
  0
SEQEND
  0
POLYLINE
  8
ETCHTB
 66
     1
 70
     0
 40
0.400000
 41
0.400000
  6
CONTINUOUS
  0
VERTEX
  8
ETCHTB
 10
47.600000
 20
148.500000
  0
VERTEX
  8
ETCHTB
 10
47.600000
 20
148.900000
  0
VERTEX
  8
ETCHTB
 10
47.300000
 20
148.900000
  0
VERTEX
  8
ETCHTB
 10
47.300000
 20
148.400000
  0
VERTEX
  8
ETCHTB
 10
47.800000
 20
148.400000
  0
VERTEX
  8
ETCHTB
 10
47.800000
 20
148.900000
  0
VERTEX
  8
ETCHTB
 10
47.400000
 20
148.900000
  0
SEQEND
  0
POLYLINE
  8
ETCHTB
 66
     1
 70
     0
 40
0.400000
 41
0.400000
  6
CONTINUOUS
  0
VERTEX
  8
ETCHTB
 10
45.500000
 20
148.500000
  0
VERTEX
  8
ETCHTB
 10
45.500000
 20
148.900000
  0
VERTEX
  8
ETCHTB
 10
45.200000
 20
148.900000
  0
VERTEX
  8
ETCHTB
 10
45.200000
 20
148.400000
  0
VERTEX
  8
ETCHTB
 10
45.700000
 20
148.400000
  0
VERTEX
  8
ETCHTB
 10
45.700000
 20
148.900000
  0
VERTEX
  8
ETCHTB
 10
45.300000
 20
148.900000
  0
SEQEND
  0
POLYLINE
  8
ETCHTB
 66
     1
 70
     0
 40
0.400000
 41
0.400000
  6
CONTINUOUS
  0
VERTEX
  8
ETCHTB
 10
77.200000
 20
163.700000
  0
VERTEX
  8
ETCHTB
 10
77.200000
 20
164.100000
  0
VERTEX
  8
ETCHTB
 10
76.900000
 20
164.100000
  0
VERTEX
  8
ETCHTB
 10
76.900000
 20
163.600000
  0
VERTEX
  8
ETCHTB
 10
77.400000
 20
163.600000
  0
VERTEX
  8
ETCHTB
 10
77.400000
 20
164.100000
  0
VERTEX
  8
ETCHTB
 10
77.000000
 20
164.100000
  0
SEQEND
  0
POLYLINE
  8
ETCHTB
 66
     1
 70
     0
 40
0.400000
 41
0.400000
  6
CONTINUOUS
  0
VERTEX
  8
ETCHTB
 10
75.100000
 20
163.700000
  0
VERTEX
  8
ETCHTB
 10
75.100000
 20
164.100000
  0
VERTEX
  8
ETCHTB
 10
74.800000
 20
164.100000
  0
VERTEX
  8
ETCHTB
 10
74.800000
 20
163.600000
  0
VERTEX
  8
ETCHTB
 10
75.300000
 20
163.600000
  0
VERTEX
  8
ETCHTB
 10
75.300000
 20
164.100000
  0
VERTEX
  8
ETCHTB
 10
74.900000
 20
164.100000
  0
SEQEND
  0
POLYLINE
  8
ETCHTB
 66
     1
 70
     0
 40
0.400000
 41
0.400000
  6
CONTINUOUS
  0
VERTEX
  8
ETCHTB
 10
15.900000
 20
163.700000
  0
VERTEX
  8
ETCHTB
 10
15.900000
 20
164.100000
  0
VERTEX
  8
ETCHTB
 10
15.600000
 20
164.100000
  0
VERTEX
  8
ETCHTB
 10
15.600000
 20
163.600000
  0
VERTEX
  8
ETCHTB
 10
16.100000
 20
163.600000
  0
VERTEX
  8
ETCHTB
 10
16.100000
 20
164.100000
  0
VERTEX
  8
ETCHTB
 10
15.700000
 20
164.100000
  0
SEQEND
  0
POLYLINE
  8
ETCHTB
 66
     1
 70
     0
 40
0.400000
 41
0.400000
  6
CONTINUOUS
  0
VERTEX
  8
ETCHTB
 10
18.000000
 20
163.700000
  0
VERTEX
  8
ETCHTB
 10
18.000000
 20
164.100000
  0
VERTEX
  8
ETCHTB
 10
17.700000
 20
164.100000
  0
VERTEX
  8
ETCHTB
 10
17.700000
 20
163.600000
  0
VERTEX
  8
ETCHTB
 10
18.200000
 20
163.600000
  0
VERTEX
  8
ETCHTB
 10
18.200000
 20
164.100000
  0
VERTEX
  8
ETCHTB
 10
17.800000
 20
164.100000
  0
SEQEND
  0
POLYLINE
  8
ETCHTB
 66
     1
 70
     0
 40
0.400000
 41
0.400000
  6
CONTINUOUS
  0
VERTEX
  8
ETCHTB
 10
47.300000
 20
148.900000
  0
VERTEX
  8
ETCHTB
 10
47.000000
 20
149.400000
  0
SEQEND
  0
POLYLINE
  8
ETCHTB
 66
     1
 70
     0
 40
0.400000
 41
0.400000
  6
CONTINUOUS
  0
VERTEX
  8
ETCHTB
 10
76.900000
 20
164.100000
  0
VERTEX
  8
ETCHTB
 10
76.600000
 20
164.600000
  0
SEQEND
  0
POLYLINE
  8
ETCHTB
 66
     1
 70
     0
 40
0.400000
 41
0.400000
  6
CONTINUOUS
  0
VERTEX
  8
ETCHTB
 10
17.700000
 20
164.100000
  0
VERTEX
  8
ETCHTB
 10
17.400000
 20
164.600000
  0
SEQEND
  0
POLYLINE
  8
ETCHTB
 66
     1
 70
     0
 40
0.400000
 41
0.400000
  6
CONTINUOUS
  0
VERTEX
  8
ETCHTB
 10
45.700000
 20
148.900000
  0
VERTEX
  8
ETCHTB
 10
46.000000
 20
149.400000
  0
SEQEND
  0
POLYLINE
  8
ETCHTB
 66
     1
 70
     0
 40
0.400000
 41
0.400000
  6
CONTINUOUS
  0
VERTEX
  8
ETCHTB
 10
75.300000
 20
164.100000
  0
VERTEX
  8
ETCHTB
 10
75.600000
 20
164.600000
  0
SEQEND
  0
POLYLINE
  8
ETCHTB
 66
     1
 70
     0
 40
0.400000
 41
0.400000
  6
CONTINUOUS
  0
VERTEX
  8
ETCHTB
 10
16.100000
 20
164.100000
  0
VERTEX
  8
ETCHTB
 10
16.400000
 20
164.600000
  0
SEQEND
  0
POLYLINE
  8
ETCHTB
 66
     1
 70
     1
 40
1.200000
 41
1.200000
  6
CONTINUOUS
  0
VERTEX
  8
ETCHTB
 10
85.500000
 20
187.900000
 42
1.000000
  0
VERTEX
  8
ETCHTB
 10
84.300000
 20
187.900000
 42
1.000000
  0
SEQEND
  0
POLYLINE
  8
ETCHTB
 66
     1
 70
     0
 40
0.400000
 41
0.400000
  6
CONTINUOUS
  0
VERTEX
  8
ETCHTB
 10
14.500000
 20
199.000000
 42
0.414213
  0
VERTEX
  8
ETCHTB
 10
15.500000
 20
198.000000
  0
SEQEND
  0
POLYLINE
  8
ETCHTB
 66
     1
 70
     0
 40
0.400000
 41
0.400000
  6
CONTINUOUS
  0
VERTEX
  8
ETCHTB
 10
15.500000
 20
208.400000
 42
0.414213
  0
VERTEX
  8
ETCHTB
 10
14.500000
 20
207.400000
  0
SEQEND
  0
POLYLINE
  8
ETCHTB
 66
     1
 70
     0
 40
0.400000
 41
0.400000
  6
CONTINUOUS
  0
VERTEX
  8
ETCHTB
 10
54.600000
 20
190.900000
 42
0.414213
  0
VERTEX
  8
ETCHTB
 10
53.600000
 20
189.900000
  0
SEQEND
  0
POLYLINE
  8
ETCHTB
 66
     1
 70
     0
 40
0.400000
 41
0.400000
  6
CONTINUOUS
  0
VERTEX
  8
ETCHTB
 10
76.500000
 20
207.400000
 42
0.414213
  0
VERTEX
  8
ETCHTB
 10
75.500000
 20
208.400000
  0
SEQEND
  0
POLYLINE
  8
ETCHTB
 66
     1
 70
     0
 40
0.400000
 41
0.400000
  6
CONTINUOUS
  0
VERTEX
  8
ETCHTB
 10
75.500000
 20
198.000000
 42
0.414213
  0
VERTEX
  8
ETCHTB
 10
76.500000
 20
199.000000
  0
SEQEND
  0
POLYLINE
  8
ETCHTB
 66
     1
 70
     0
 40
0.400000
 41
0.400000
  6
CONTINUOUS
  0
VERTEX
  8
ETCHTB
 10
15.700000
 20
190.900000
 42
0.414213
  0
VERTEX
  8
ETCHTB
 10
14.700000
 20
189.900000
  0
SEQEND
  0
POLYLINE
  8
ETCHTB
 66
     1
 70
     0
 40
0.400000
 41
0.400000
  6
CONTINUOUS
  0
VERTEX
  8
ETCHTB
 10
14.700000
 20
173.900000
 42
0.414213
  0
VERTEX
  8
ETCHTB
 10
15.700000
 20
172.900000
  0
SEQEND
  0
POLYLINE
  8
ETCHTB
 66
     1
 70
     0
 40
0.400000
 41
0.400000
  6
CONTINUOUS
  0
VERTEX
  8
ETCHTB
 10
40.100000
 20
189.900000
 42
0.414213
  0
VERTEX
  8
ETCHTB
 10
39.100000
 20
190.900000
  0
SEQEND
  0
POLYLINE
  8
ETCHTB
 66
     1
 70
     0
 40
0.400000
 41
0.400000
  6
CONTINUOUS
  0
VERTEX
  8
ETCHTB
 10
76.100000
 20
172.900000
 42
0.414213
  0
VERTEX
  8
ETCHTB
 10
77.100000
 20
173.900000
  0
SEQEND
  0
POLYLINE
  8
ETCHTB
 66
     1
 70
     1
 40
2.500000
 41
2.500000
  6
CONTINUOUS
  0
VERTEX
  8
ETCHTB
 10
62.550000
 20
159.400000
 42
1.000000
  0
VERTEX
  8
ETCHTB
 10
60.050000
 20
159.400000
 42
1.000000
  0
SEQEND
  0
SOLID
  8
ETCHTB
 10
72.200000
 20
163.800000
 11
72.200000
 21
159.800000
 12
68.300000
 22
163.800000
 13
68.300000
 23
159.800000
  0
SOLID
  8
ETCHTB
 10
72.200000
 20
159.000000
 11
72.200000
 21
155.000000
 12
68.300000
 22
159.000000
 13
68.300000
 23
155.000000
  0
SOLID
  8
ETCHTB
 10
73.600000
 20
173.100000
 11
73.600000
 21
169.100000
 12
69.700000
 22
173.100000
 13
69.700000
 23
169.100000
  0
SOLID
  8
ETCHTB
 10
68.900000
 20
173.100000
 11
68.900000
 21
169.100000
 12
65.000000
 22
173.100000
 13
65.000000
 23
169.100000
  0
SOLID
  8
ETCHTB
 10
14.900000
 20
175.800000
 11
14.900000
 21
171.800000
 12
11.000000
 22
175.800000
 13
11.000000
 23
171.800000
  0
SOLID
  8
ETCHTB
 10
14.900000
 20
180.600000
 11
14.900000
 21
176.600000
 12
11.000000
 22
180.600000
 13
11.000000
 23
176.600000
  0
SOLID
  8
ETCHTB
 10
53.600000
 20
140.200000
 11
53.600000
 21
136.200000
 12
49.700000
 22
140.200000
 13
49.700000
 23
136.200000
  0
SOLID
  8
ETCHTB
 10
53.600000
 20
145.000000
 11
53.600000
 21
141.000000
 12
49.700000
 22
145.000000
 13
49.700000
 23
141.000000
  0
SOLID
  8
ETCHTB
 10
14.700000
 20
124.100000
 11
14.700000
 21
120.100000
 12
10.800000
 22
124.100000
 13
10.800000
 23
120.100000
  0
SOLID
  8
ETCHTB
 10
14.700000
 20
119.300000
 11
14.700000
 21
115.300000
 12
10.800000
 22
119.300000
 13
10.800000
 23
115.300000
  0
SOLID
  8
ETCHTB
 10
14.700000
 20
159.700000
 11
14.700000
 21
155.700000
 12
10.800000
 22
159.700000
 13
10.800000
 23
155.700000
  0
SOLID
  8
ETCHTB
 10
14.700000
 20
164.500000
 11
14.700000
 21
160.500000
 12
10.800000
 22
164.500000
 13
10.800000
 23
160.500000
  0
SOLID
  8
ETCHTB
 10
82.200000
 20
159.700000
 11
82.200000
 21
155.700000
 12
78.300000
 22
159.700000
 13
78.300000
 23
155.700000
  0
SOLID
  8
ETCHTB
 10
82.200000
 20
164.500000
 11
82.200000
 21
160.500000
 12
78.300000
 22
164.500000
 13
78.300000
 23
160.500000
  0
SOLID
  8
ETCHTB
 10
82.300000
 20
125.100000
 11
82.300000
 21
121.100000
 12
78.400000
 22
125.100000
 13
78.400000
 23
121.100000
  0
SOLID
  8
ETCHTB
 10
82.300000
 20
120.300000
 11
82.300000
 21
116.300000
 12
78.400000
 22
120.300000
 13
78.400000
 23
116.300000
  0
SOLID
  8
ETCHTB
 10
80.200000
 20
202.800000
 11
80.200000
 21
198.800000
 12
76.300000
 22
202.800000
 13
76.300000
 23
198.800000
  0
SOLID
  8
ETCHTB
 10
80.200000
 20
207.600000
 11
80.200000
 21
203.600000
 12
76.300000
 22
207.600000
 13
76.300000
 23
203.600000
  0
SOLID
  8
ETCHTB
 10
14.700000
 20
202.800000
 11
14.700000
 21
198.800000
 12
10.800000
 22
202.800000
 13
10.800000
 23
198.800000
  0
SOLID
  8
ETCHTB
 10
14.700000
 20
207.600000
 11
14.700000
 21
203.600000
 12
10.800000
 22
207.600000
 13
10.800000
 23
203.600000
  0
SOLID
  8
ETCHTB
 10
45.300000
 20
198.200000
 11
45.300000
 21
194.200000
 12
41.400000
 22
198.200000
 13
41.400000
 23
194.200000
  0
SOLID
  8
ETCHTB
 10
50.000000
 20
198.200000
 11
50.000000
 21
194.200000
 12
46.100000
 22
198.200000
 13
46.100000
 23
194.200000
  0
ENDSEC
  0
EOF
